top separator

Home

Forum

What's New

Submit a Tab

FAQ

Links

Contact Us

Link to Us

MetalTabs.com logo

Bands

0-9

A

B

C

D

E

F

G

H

I

J

K

L

M

N

O

P

Q

R

S

T

U

V

W

X

Y

Z

Search

What

Where
 

Destruction - "Life Without Sense" Guitar Tab

Plain Text Version
More Destruction Tabs

Hits: 4740
Rated: 3.22 out of 5 (9 votes)
Updated: 2005-10-12 06:23:34

 

By:

Chris Rezendes

sendpm.gif

email.gif

Important note
This tab is available online because we obtained explicit permission from Destruction or their label.


#----------------------------------PLEASE NOTE---------------------------------#
#This file is the author's own work and represents their interpretation of the #
#song. You may only use this file for private study, scholarship, or research. #
#Unless specified otherwise, this is NOT an official tab from the band members.#
#------------------------------------------------------------------------------#

  Visit MetalTabs.com for more metal tablature
  
================================================================================
Song: Life Without Sense
Artist: Destruction
Album: Eternal Devastation (1986, Steamhammer)

Tabbed by Chris Rezendes (dudemcrude@yahoo.com)
Date started tab: 10/03/05
Date finished tab: 10/04/05

Tuning: E
Copy: First

Notation Key
~  : vibrato
^  : bend
.  : palm mute
r  : release
t  : trill
p  : pull-off
h  : hammer-on
x  : ghost note
/  : slide up
\  : slide down
>< : pinch harmonics

Comments: Just felt like doing this one.  If you spot anything wrong with this,
please let me know.
================================================================================

Riff 1A x5
e|---------------------------------|---------------------------------|
B|---------------------------------|---------------------------------|
G|---------------------------------|---------------------------------|
D|---------------------------------|---------------------------------|
A|--2-------5-------2-----------3--|--2-------5-------2-----------1--|
E|--0-0-0-0-3-0-0-0-0-0-0-0-2/3----|--0-0-0-0-3-0-0-0-0-0-0-0-2/3----|
      . . .   . . .   . . .             . . .   . . .   . . .

e|---------------------------------|---------------------------------------|
B|---------------------------------|---------------------------------------|
G|---------------------------------|---------------------------------------|
D|---------------------------------|---------------------------------------|
A|--2-------5-------2-----------1--|--2-------5/6--------------------------|
E|--0-0-0-0-3-0-0-0-0-0-0-0-2/3----|--0-0-0-0-----0-0--5/6--0-0--2/3--5/6--|
      . . .   . . .   . . .             . . .     . .       . .

Riff 1B x1
e|---------------------------------|---------------------------------|
B|---------------------------------|---------------------------------|
G|---------------------------------|---------------------------------|
D|---------------------------------|---------------------------------|
A|--2-------5-------2-----------3--|--2-------5-------2-----------1--|
E|--0-0-0-0-3-0-0-0-0-0-0-0-2/3----|--0-0-0-0-3-0-0-0-0-0-0-0-2/3----|
      . . .   . . .   . . .             . . .   . . .   . . .

e|---------------------------------|--------------------------------------|
B|---------------------------------|--------------------------------------|
G|---------------------------------|--------------------------------------|
D|---------------------------------|--------------------------------------|
A|--2-------5-------2-----------1--|--2-------5/6-------------------------|
E|--0-0-0-0-3-0-0-0-0-0-0-0-2/3----|--0-0-0-0-----0-0--5/6--0-0--2/3--8\--|
      . . .   . . .   . . .             . . .     . .       . .

            TIME- 0:58

Riff 2A x1
e|----------------------|----------------------|
B|----------------------|----------------------|
G|----------------------|----------------------|
D|----------------------|----------------------|
A|----------------------|----------------------|
E|--222222222222-0-2h3--|--222222222222-0-2h3--|
    ............           ............

e|----------------------|----------------------|
B|----------------------|----------------------|
G|----------------------|----------------------|
D|----------------------|----------------------|
A|----------------------|----------------------|
E|--111111111111-0-1h3--|--111111111111-0-1h3--|
    ............           ............

Riff 2B x1
e|----------------------|----------------------|
B|----------------------|----------------------|
G|----------------------|----------------------|
D|----------------------|----------------------|
A|----------------------|----------------------|
E|--222222222222-0-2h3--|--222222222222-0-2h3--|
    ............           ............

e|----------------------|--------------------|
B|----------------------|--------------------|
G|----------------------|--------------------|
D|----------------------|--------------------|
A|----------------------|-----------------3--|
E|--111111111111-0-1h3--|--111111111111-1-1--|
    ............           ............

            TIME- 1:08

Riff 1A x2
e|---------------------------------|---------------------------------|
B|---------------------------------|---------------------------------|
G|---------------------------------|---------------------------------|
D|---------------------------------|---------------------------------|
A|--2-------5-------2-----------3--|--2-------5-------2-----------1--|
E|--0-0-0-0-3-0-0-0-0-0-0-0-2/3----|--0-0-0-0-3-0-0-0-0-0-0-0-2/3----|
      . . .   . . .   . . .             . . .   . . .   . . .

e|---------------------------------|---------------------------------------|
B|---------------------------------|---------------------------------------|
G|---------------------------------|---------------------------------------|
D|---------------------------------|---------------------------------------|
A|--2-------5-------2-----------1--|--2-------5/6--------------------------|
E|--0-0-0-0-3-0-0-0-0-0-0-0-2/3----|--0-0-0-0-----0-0--5/6--0-0--2/3--5/6--|
      . . .   . . .   . . .             . . .     . .       . .

Riff 1B x1
e|---------------------------------|---------------------------------|
B|---------------------------------|---------------------------------|
G|---------------------------------|---------------------------------|
D|---------------------------------|---------------------------------|
A|--2-------5-------2-----------3--|--2-------5-------2-----------1--|
E|--0-0-0-0-3-0-0-0-0-0-0-0-2/3----|--0-0-0-0-3-0-0-0-0-0-0-0-2/3----|
      . . .   . . .   . . .             . . .   . . .   . . .

e|---------------------------------|--------------------------------------|
B|---------------------------------|--------------------------------------|
G|---------------------------------|--------------------------------------|
D|---------------------------------|--------------------------------------|
A|--2-------5-------2-----------1--|--2-------5/6-------------------------|
E|--0-0-0-0-3-0-0-0-0-0-0-0-2/3----|--0-0-0-0-----0-0--5/6--0-0--2/3--8\--|
      . . .   . . .   . . .             . . .     . .       . .

            TIME- 1:36

Riff 2A x3
e|----------------------|----------------------|
B|----------------------|----------------------|
G|----------------------|----------------------|
D|----------------------|----------------------|
A|----------------------|----------------------|
E|--222222222222-0-2h3--|--222222222222-0-2h3--|
    ............           ............

e|----------------------|----------------------|
B|----------------------|----------------------|
G|----------------------|----------------------|
D|----------------------|----------------------|
A|----------------------|----------------------|
E|--111111111111-0-1h3--|--111111111111-0-1h3--|
    ............           ............

Riff 2B x1
e|----------------------|----------------------|
B|----------------------|----------------------|
G|----------------------|----------------------|
D|----------------------|----------------------|
A|----------------------|----------------------|
E|--222222222222-0-2h3--|--222222222222-0-2h3--|
    ............           ............

e|----------------------|--------------------|
B|----------------------|--------------------|
G|----------------------|--------------------|
D|----------------------|--------------------|
A|----------------------|-----------------3--|
E|--111111111111-0-1h3--|--111111111111-1-1--|
    ............           ............

            TIME- 1:55

Riff 3 x4
e|----------------------------------|-----------------------------------|
B|----------------------------------|-----------------------------------|
G|----------------------------------|-----------------------------------|
D|-----------3----------------3-----|-----------8-----------------6-----|
A|-----------1--------3-------1--3--|-----------6--------8--------4--6--|
E|--00000000---000000-1-000000---1--|--00000000---000000-6-000000----4--|
    ........   ......   ......         ........   ......   ......

            TIME- 2:14

Riff 4 x1
e|-------------------|-------------------|
B|-------------------|-------------------|
G|-------------------|-------------------|
D|----4---5---4---4--|----4---5---4---4--|
A|--2---3---2---2----|--2---3---2---2----|
E|-------------------|-------------------|

e|-------------------|-------------------|
B|-------------------|-------------------|
G|-------------------|-------------------|
D|----7---8---7---7--|----7---8---7---7--|
A|--5---6---5---5----|--5---6---5---5----|
E|-------------------|-------------------|

            TIME- 2:18

Riff 5 x2
e|--------------------------------------------|
B|--------------------------------------------|
G|--------------------------------------------|
D|--------------------------------------------|
A|------2h3p2-----1h2p1-----2h3p2--1h2p1------|
E|--0-0-------0-0-------0-0--------------3p0--|

e|------------------------------------------|
B|------------------------------------------|
G|--------------------------------------10--|
D|--------------------------------------10--|
A|------2h3p2-----1h2p1-----10----10-----8--|
E|--0-0-------0-0-------0-0----00----00-----|

Riff 6 x1
e|-------------------|-------------------|-------------------------|
B|-------------------|-------------------|-------------------------|
G|-------------------|-------------------|-------------------------|
D|-------------------|-------------------|-------------------------|
A|----6---7---6---7--|----6---7---6---7--|----7-6---7-6---7-6---7--|
E|--7---7---7---7----|--7---7---7---7----|--7-----7-----7-----7----|

            TIME- 2:32

Riff 5 x1
e|--------------------------------------------|
B|--------------------------------------------|
G|--------------------------------------------|
D|--------------------------------------------|
A|------2h3p2-----1h2p1-----2h3p2--1h2p1------|
E|--0-0-------0-0-------0-0--------------3p0--|

e|------------------------------------------|
B|------------------------------------------|
G|--------------------------------------10--|
D|--------------------------------------10--|
A|------2h3p2-----1h2p1-----10----10-----8--|
E|--0-0-------0-0-------0-0----00----00-----|

Riff 6 x1
e|-------------------|-------------------|-------------------------|
B|-------------------|-------------------|-------------------------|
G|-------------------|-------------------|-------------------------|
D|-------------------|-------------------|-------------------------|
A|----6---7---6---7--|----6---7---6---7--|----7-6---7-6---7-6---7--|
E|--7---7---7---7----|--7---7---7---7----|--7-----7-----7-----7----|

            TIME- 2:42

Riff 5 x1
e|--------------------------------------------|
B|--------------------------------------------|
G|--------------------------------------------|
D|--------------------------------------------|
A|------2h3p2-----1h2p1-----2h3p2--1h2p1------|
E|--0-0-------0-0-------0-0--------------3p0--|

e|------------------------------------------|
B|------------------------------------------|
G|--------------------------------------10--|
D|--------------------------------------10--|
A|------2h3p2-----1h2p1-----10----10-----8--|
E|--0-0-------0-0-------0-0----00----00-----|

            TIME- 2:46

Riff 4 x2
e|-------------------|-------------------|
B|-------------------|-------------------|
G|-------------------|-------------------|
D|----4---5---4---4--|----4---5---4---4--|
A|--2---3---2---2----|--2---3---2---2----|
E|-------------------|-------------------|

e|-------------------|-------------------|
B|-------------------|-------------------|
G|-------------------|-------------------|
D|----7---8---7---7--|----7---8---7---7--|
A|--5---6---5---5----|--5---6---5---5----|
E|-------------------|-------------------|

            TIME- 2:56

Riff 5 x2
e|--------------------------------------------|
B|--------------------------------------------|
G|--------------------------------------------|
D|--------------------------------------------|
A|------2h3p2-----1h2p1-----2h3p2--1h2p1------|
E|--0-0-------0-0-------0-0--------------3p0--|

e|------------------------------------------|
B|------------------------------------------|
G|--------------------------------------10--|
D|--------------------------------------10--|
A|------2h3p2-----1h2p1-----10----10-----8--|
E|--0-0-------0-0-------0-0----00----00-----|

Riff 6 x1
e|-------------------|-------------------|-------------------------|
B|-------------------|-------------------|-------------------------|
G|-------------------|-------------------|-------------------------|
D|-------------------|-------------------|-------------------------|
A|----6---7---6---7--|----6---7---6---7--|----7-6---7-6---7-6---7--|
E|--7---7---7---7----|--7---7---7---7----|--7-----7-----7-----7----|

            TIME- 3:10

Riff 5 x1
e|--------------------------------------------|
B|--------------------------------------------|
G|--------------------------------------------|
D|--------------------------------------------|
A|------2h3p2-----1h2p1-----2h3p2--1h2p1------|
E|--0-0-------0-0-------0-0--------------3p0--|

e|------------------------------------------|
B|------------------------------------------|
G|--------------------------------------10--|
D|--------------------------------------10--|
A|------2h3p2-----1h2p1-----10----10-----8--|
E|--0-0-------0-0-------0-0----00----00-----|

Riff 6 x1
e|-------------------|-------------------|-------------------------|
B|-------------------|-------------------|-------------------------|
G|-------------------|-------------------|-------------------------|
D|-------------------|-------------------|-------------------------|
A|----6---7---6---7--|----6---7---6---7--|----7-6---7-6---7-6---7--|
E|--7---7---7---7----|--7---7---7---7----|--7-----7-----7-----7----|

            TIME- 3:19

Riff 5 x1
e|--------------------------------------------|
B|--------------------------------------------|
G|--------------------------------------------|
D|--------------------------------------------|
A|------2h3p2-----1h2p1-----2h3p2--1h2p1------|
E|--0-0-------0-0-------0-0--------------3p0--|

e|------------------------------------------|
B|------------------------------------------|
G|--------------------------------------10--|
D|--------------------------------------10--|
A|------2h3p2-----1h2p1-----10----10-----8--|
E|--0-0-------0-0-------0-0----00----00-----|

            TIME- 3:24

Riff 4 x2
e|-------------------|-------------------|
B|-------------------|-------------------|
G|-------------------|-------------------|
D|----4---5---4---4--|----4---5---4---4--|
A|--2---3---2---2----|--2---3---2---2----|
E|-------------------|-------------------|

e|-------------------|-------------------|
B|-------------------|-------------------|
G|-------------------|-------------------|
D|----7---8---7---7--|----7---8---7---7--|
A|--5---6---5---5----|--5---6---5---5----|
E|-------------------|-------------------|

            TIME- 3:33

Riff 1A x2
e|---------------------------------|---------------------------------|
B|---------------------------------|---------------------------------|
G|---------------------------------|---------------------------------|
D|---------------------------------|---------------------------------|
A|--2-------5-------2-----------3--|--2-------5-------2-----------1--|
E|--0-0-0-0-3-0-0-0-0-0-0-0-2/3----|--0-0-0-0-3-0-0-0-0-0-0-0-2/3----|
      . . .   . . .   . . .             . . .   . . .   . . .

e|---------------------------------|---------------------------------------|
B|---------------------------------|---------------------------------------|
G|---------------------------------|---------------------------------------|
D|---------------------------------|---------------------------------------|
A|--2-------5-------2-----------1--|--2-------5/6--------------------------|
E|--0-0-0-0-3-0-0-0-0-0-0-0-2/3----|--0-0-0-0-----0-0--5/6--0-0--2/3--5/6--|
      . . .   . . .   . . .             . . .     . .       . .

Riff 1B x1
e|---------------------------------|---------------------------------|
B|---------------------------------|---------------------------------|
G|---------------------------------|---------------------------------|
D|---------------------------------|---------------------------------|
A|--2-------5-------2-----------3--|--2-------5-------2-----------1--|
E|--0-0-0-0-3-0-0-0-0-0-0-0-2/3----|--0-0-0-0-3-0-0-0-0-0-0-0-2/3----|
      . . .   . . .   . . .             . . .   . . .   . . .

e|---------------------------------|--------------------------------------|
B|---------------------------------|--------------------------------------|
G|---------------------------------|--------------------------------------|
D|---------------------------------|--------------------------------------|
A|--2-------5-------2-----------1--|--2-------5/6-------------------------|
E|--0-0-0-0-3-0-0-0-0-0-0-0-2/3----|--0-0-0-0-----0-0--5/6--0-0--2/3--8\--|
      . . .   . . .   . . .             . . .     . .       . .

            TIME- 4:02

Riff 2A x3
e|----------------------|----------------------|
B|----------------------|----------------------|
G|----------------------|----------------------|
D|----------------------|----------------------|
A|----------------------|----------------------|
E|--222222222222-0-2h3--|--222222222222-0-2h3--|
    ............           ............

e|----------------------|----------------------|
B|----------------------|----------------------|
G|----------------------|----------------------|
D|----------------------|----------------------|
A|----------------------|----------------------|
E|--111111111111-0-1h3--|--111111111111-0-1h3--|
    ............           ............

Riff 2C x1
e|----------------------|----------------------|
B|----------------------|----------------------|
G|----------------------|----------------------|
D|----------------------|----------------------|
A|----------------------|----------------------|
E|--222222222222-0-2h3--|--222222222222-0-2h3--|
    ............           ............

e|----------------------|----------------|
B|----------------------|----------------|
G|----------------------|----------------|
D|----------------------|----------------|
A|----------------------|----------------|
E|--111111111111-0-1h3--|--111111111111--|
    ............           ............

            TIME- 4:21

Riff 7 x2
e|----------------------------------------------|
B|----------------------------------------------|
G|----------------------------------------------|
D|----------------------------------------------|
A|--2----------4----------5----------2----------|
E|--0-0-0-0-0--2-2-2-2-2--3-3-3-3-3--0-0-0-0-0--|
      . . . .    . . . .    . . . .    . . . .

e|-----------------------------------------|
B|-----------------------------------------|
G|-----------------------------------------|
D|--5----------4----------2----------------|
A|--3-3-3-3-3--2-2-2-2-2--0-0-0-0-0--5--4--|
E|-----------------------------------3--2--|
      . . . .    . . . .    . . . .

            TIME- 4:31

Riff 8A x2
e|----------------------------------------------|
B|----------------------------------------------|
G|----------------------------------------------|
D|--2----------4----------5---------------------|
A|--0-0-0-0-0--2-2-2-2-2--3-3-3-3-3--5----------|
E|-----------------------------------3-3-3-3-3--|
      . . . .    . . . .    . . . .    . . . .

e|-----------------------------------|
B|-----------------------------------|
G|-----------------------------------|
D|--------9-------9-------9-------9--|
A|--------7-------7-------7-------7--|
E|--0-0-0---0-0-0---0-0-0---0-0-0----|
    . . .   . . .   . . .   . . .

            TIME- 4:41

Riff 7 x2
e|----------------------------------------------|
B|----------------------------------------------|
G|----------------------------------------------|
D|----------------------------------------------|
A|--2----------4----------5----------2----------|
E|--0-0-0-0-0--2-2-2-2-2--3-3-3-3-3--0-0-0-0-0--|
      . . . .    . . . .    . . . .    . . . .

e|-----------------------------------------|
B|-----------------------------------------|
G|-----------------------------------------|
D|--5----------4----------2----------------|
A|--3-3-3-3-3--2-2-2-2-2--0-0-0-0-0--5--4--|
E|-----------------------------------3--2--|
      . . . .    . . . .    . . . .

            TIME- 4:51

Riff 8A x1
e|----------------------------------------------|
B|----------------------------------------------|
G|----------------------------------------------|
D|--2----------4----------5---------------------|
A|--0-0-0-0-0--2-2-2-2-2--3-3-3-3-3--5----------|
E|-----------------------------------3-3-3-3-3--|
      . . . .    . . . .    . . . .    . . . .

e|-----------------------------------|
B|-----------------------------------|
G|-----------------------------------|
D|--------9-------9-------9-------9--|
A|--------7-------7-------7-------7--|
E|--0-0-0---0-0-0---0-0-0---0-0-0----|
    . . .   . . .   . . .   . . .

Riff 8B x1
e|----------------------------------------------|
B|----------------------------------------------|
G|----------------------------------------------|
D|--2----------4----------5---------------------|
A|--0-0-0-0-0--2-2-2-2-2--3-3-3-3-3--5----------|
E|-----------------------------------3-3-3-3-3--|
      . . . .    . . . .    . . . .    . . . .

e|-----------------------------------|
B|-----------------------------------|
G|-----------------------------------|
D|--------4-------4-------4-------4--|
A|--------2-------2-------2-------2--|
E|--0-0-0---0-0-0---0-0-0---0-0-0----|
    . . .   . . .   . . .   . . .


            TIME- 5:02

Fig. 1A x2
e|---------|---------|---------|---------|
B|---------|---------|---------|---------|
G|--4-5-4--|--4-5-4--|--7-8-7--|--7-8-7--|
D|--4-5-4--|--4-5-4--|--7-8-7--|--7-8-7--|
A|--2-3-2--|--2-3-2--|--5-6-5--|--5-6-5--|
E|---------|---------|---------|---------|

            TIME- 5:13

Riff 4 x2
e|-------------------|-------------------|
B|-------------------|-------------------|
G|-------------------|-------------------|
D|----4---5---4---4--|----4---5---4---4--|
A|--2---3---2---2----|--2---3---2---2----|
E|-------------------|-------------------|

e|-------------------|-------------------|
B|-------------------|-------------------|
G|-------------------|-------------------|
D|----7---8---7---7--|----7---8---7---7--|
A|--5---6---5---5----|--5---6---5---5----|
E|-------------------|-------------------|

            TIME- 5:23

Riff 5 x2
e|--------------------------------------------|
B|--------------------------------------------|
G|--------------------------------------------|
D|--------------------------------------------|
A|------2h3p2-----1h2p1-----2h3p2--1h2p1------|
E|--0-0-------0-0-------0-0--------------3p0--|

e|------------------------------------------|
B|------------------------------------------|
G|--------------------------------------10--|
D|--------------------------------------10--|
A|------2h3p2-----1h2p1-----10----10-----8--|
E|--0-0-------0-0-------0-0----00----00-----|

Riff 6 x1
e|-------------------|-------------------|-------------------------|
B|-------------------|-------------------|-------------------------|
G|-------------------|-------------------|-------------------------|
D|-------------------|-------------------|-------------------------|
A|----6---7---6---7--|----6---7---6---7--|----7-6---7-6---7-6---7--|
E|--7---7---7---7----|--7---7---7---7----|--7-----7-----7-----7----|

            TIME- 5:36

Riff 5 x1
e|--------------------------------------------|
B|--------------------------------------------|
G|--------------------------------------------|
D|--------------------------------------------|
A|------2h3p2-----1h2p1-----2h3p2--1h2p1------|
E|--0-0-------0-0-------0-0--------------3p0--|

e|------------------------------------------|
B|------------------------------------------|
G|--------------------------------------10--|
D|--------------------------------------10--|
A|------2h3p2-----1h2p1-----10----10-----8--|
E|--0-0-------0-0-------0-0----00----00-----|

Riff 6 x1
e|-------------------|-------------------|-------------------------|
B|-------------------|-------------------|-------------------------|
G|-------------------|-------------------|-------------------------|
D|-------------------|-------------------|-------------------------|
A|----6---7---6---7--|----6---7---6---7--|----7-6---7-6---7-6---7--|
E|--7---7---7---7----|--7---7---7---7----|--7-----7-----7-----7----|

            TIME- 5:46

Riff 5 x1
e|--------------------------------------------|
B|--------------------------------------------|
G|--------------------------------------------|
D|--------------------------------------------|
A|------2h3p2-----1h2p1-----2h3p2--1h2p1------|
E|--0-0-------0-0-------0-0--------------3p0--|

e|------------------------------------------|
B|------------------------------------------|
G|--------------------------------------10--|
D|--------------------------------------10--|
A|------2h3p2-----1h2p1-----10----10-----8--|
E|--0-0-------0-0-------0-0----00----00-----|

            TIME- 5:50

Riff 4 x2
e|-------------------|-------------------|
B|-------------------|-------------------|
G|-------------------|-------------------|
D|----4---5---4---4--|----4---5---4---4--|
A|--2---3---2---2----|--2---3---2---2----|
E|-------------------|-------------------|

e|-------------------|-------------------|
B|-------------------|-------------------|
G|-------------------|-------------------|
D|----7---8---7---7--|----7---8---7---7--|
A|--5---6---5---5----|--5---6---5---5----|
E|-------------------|-------------------|

            TIME- 6:00

Fig. 1A x1
e|---------|---------|---------|---------|
B|---------|---------|---------|---------|
G|--4-5-4--|--4-5-4--|--7-8-7--|--7-8-7--|
D|--4-5-4--|--4-5-4--|--7-8-7--|--7-8-7--|
A|--2-3-2--|--2-3-2--|--5-6-5--|--5-6-5--|
E|---------|---------|---------|---------|

Fig. 1B x1
e|---------|---------|---------|-------------|
B|---------|---------|---------|-------------|
G|--4-5-4--|--4-5-4--|--7-8-7--|--5---4------|
D|--4-5-4--|--4-5-4--|--7-8-7--|--5-5-4-4-2--|
A|--2-3-2--|--2-3-2--|--5-6-5--|--3-5-2-4-2--|
E|---------|---------|---------|----3---2-0--|

  Visit MetalTabs.com for more metal tablature

bottom separator

Contact Us | Privacy Policy | Disclaimer | Legal Notice
Copyright © 2001-2014 MetalTabs.com. All Rights Reserved.