top separator

Home

Forum

FAQ

Contact Us

Link to Us

MetalTabs.com logo

Bands

0-9

A

B

C

D

E

F

G

H

I

J

K

L

M

N

O

P

Q

R

S

T

U

V

W

X

Y

Z

Emperor - "An Elegy Of Icaros" Guitar Tab

Plain Text Version
More Emperor Tabs

Hits: 2803
Rated: 3.67 out of 5 (3 votes)
Updated: 2005-03-10 16:25:39

By:

eyehatepop89


#----------------------------------PLEASE NOTE---------------------------------#
#This file is the author's own work and represents their interpretation of the #
#song. You may only use this file for private study, scholarship, or research. #
#Unless specified otherwise, this is NOT an official tab from the band members.#
#------------------------------------------------------------------------------#

  Visit MetalTabs.com for more metal tablature
  
Band: Emperor
Title: An Elegy of Icaros
Candlelight Records(R)
Any comments or questions
Email: Overkill92@excite.com


Violin Intro (Transcribed for guitar)

E-                                             15 17 18 20 22 22 19
B-17        15 17 18 17         15 17 18    16
G-  14 15 17           14 15 17          17
D-
A-
E-

E- 16
B-    18 17 18 17 15          17       15 17          15 17 15          15 18
G-                   17 16 14    16 17       17 16 17          17 16 17
D-
A-
E-

Riff I
Samoth                         Ihsahn
E---------------------------   E-----------Thatís basically it for Ihsahn. Just
B---------------------------   B-----------two chords for that part.
G---------------------------   G-----------
D-----2/4-------2---4/6-----   D-6------9--
A---------6-4-6---2-----6---   A-7------11-
E-0-4---------------------7-   E-----------

Samoth                                  Ihsahn
E---------------------------------      E-----------
B---------------------------------      B-----------The chord in the parenthesis
G---------------------------------      G-----------is for the last time before
D---------------------------7-5-7-      D-3---10(2)-it goes back.
A-5/7---5/7-------5/7---5/7-------      A-5---12(0)-
E-----5-----5-3-5-----5-----------      E-----------

Riff II
Samoth
E-------------------------------------------
B-------------------------------------------
G---------------------9------9------10------
D--------------7---8--7------7------8-------
A-5-4-3-2-6-6--5-8-6--5------5------6-------
E-3-2-1-0--------6------0000---0000----0000-

Ihsahn
E---------------------------------0-----1-----------
B---------------------------------3--2--4---5--5--6-
G------8-----8-----8-----8-----8--2--3--3---7--7--8-
D----9-----9-----9-----9-----9-------3------6--6--8-
A-10-----9-----8-----7-----6---------1------5--5--6-
E-------------------------------------------------6-

E---------------------------------------------------------
B---------------------------------------------------------
G---------------------------------------------------------
D-------6-5-----5---------------6-5---------------6---7-6-
A-----3-------3---5/7\5/7-----3-----7\5/7\5-----3-----5-4-
E-1-1-------1-------------1-1---------------1-1-------5-4-


E---4-----3-----4-----3-----4-----3---------------1-----0-----
B-----5-----5-----5-----4-----6-----6-3/5\3/5---3-----3-----3-
G-5-----6-----6-----6-----6-----5-------------2-----2-----2---
D-------------------------------------------------------------
A-------------------------------------------------------------
E-------------------------------------------------------------

Riff III

Samoth
E-----------------------
B-----------------------
G-----------------------
D-----------------------
A-----------------------
E-0000-11-33-1111-33-55-

Ihsahn
E----------0--------------------------
B-8--7--6--0--19----18----17----16----
G-9--6--5--0--------------------------
D-9--8--7--2--------------------------
A-7--6--5-----------------------------
E-------------------------------------

Ihsahn & Samoth
E---------------------------------------------------------
B---------------------------------------------------------
G---------------------------------------------------------
D-------------------4/6\4/6\4-----------------------------
A--------1-1--------6/8\6/8\6--------1-1--------1/3\1/3\1-
E-0-00-0-3-3-0-00-0-----------0-00-0-3-3-0-00-0-3/5\3/5\3-

Riff IV

Ihsahn & Samoth
E[--------]-------------------------------------------{--------}
B[--------]-------------------------------------------{--------}
G[--------]-------------------------------------------{--------}
D[--------]------------2-4-5--------------------------{0-2-3-4-}
A[7-5-7-5-]-4-----3-4--0-2-3--4-----3-4--/6\4-4/6\4-4-{0-2-3-4-}
E[5-3-5-3-]-2-0-0-1-2---------2-0-0-1-2--/4\2-2/4\2-2-{--------}
Play Once=[]                                    Second Beginning={}



Break

Ihsahn                |----Ending I---||---------Ending II----------|
E--------------------------------------|----------------------------|
B--------------------------------------|----------------------------|
G----------------------------0-------0-|----------------------------|
D-------6-7-6h7p6----------0-------0---|-5/7-7--3/5--5/7--7/9--9/10-|
A-7-5-7-----------7------3-------3-----|----------------------------|
E-------------------8\-4-------1-------|----------------------------|

Samoth

E-------Do these chords the first time around then kick in with this:
B-------
G-------
D-9-7-9-
A-7-5-7-
E-------
                      |---Ending I--||---------Ending II----------|
E-----------------------------------|-----------------------------|
B-----------------------------------|-----------------------------|
G-------4-5-4h5p4-------------------|-----------------------------|
D-----------------6-----------------|-6/7-7--3/5--5/7--7/9--9/10--|
A-7-5-7-------------6-----10-----10-|-----------------------------|
E---------------------5/8----1/8----|-----------------------------|

Thatís pretty much it.  I didnít include time or order so just listen
to the song for timing, where the parts go and how many times you play them.
The ending is pretty much Riff I and Riff II and thatís it.

Any questions or comments, e-mail me at:
Overkill92@hotmail.com

  Visit MetalTabs.com for more metal tablature

bottom separator

Contact Us | Privacy Policy | Disclaimer
Copyright © 2001-2014 MetalTabs.com. All Rights Reserved.