top separator

Home

Forum

FAQ

Contact Us

Link to Us

MetalTabs.com logo

Bands

0-9

A

B

C

D

E

F

G

H

I

J

K

L

M

N

O

P

Q

R

S

T

U

V

W

X

Y

Z

Amon Amarth - "The fall through ginnungagap" Guitar Tab

Plain Text Version
More Amon Amarth Tabs

Hits: 2268
Rated: 4.20 out of 5 (5 votes)
Updated: 2004-05-15 12:34:49

By:

Corpsevomit98


#----------------------------------PLEASE NOTE---------------------------------#
#This file is the author's own work and represents their interpretation of the #
#song. You may only use this file for private study, scholarship, or research. #
#Unless specified otherwise, this is NOT an official tab from the band members.#
#------------------------------------------------------------------------------#

  Visit MetalTabs.com for more metal tablature
  
Band:  Amon Amarth
Album: The Crusher
Song:  The Fall Through Ginnungagap

Copyright   Metal Blade Records
Version 1.0

Transcribed By: John the Unholy
Email:          Corpsevomit98@hotmail.com

Tuning (B) (BEADGB)

Legend
  Tremolo Pick                  / or \ Slide to note
.  Palm Mute                     p     pull off
T  tap with pick or finger       h     hammer on

.1 = Guitar 1
.2 = Guitar 2

A.1
|----------------------|--------|
|----------------------|--------|
|-------------------9-|-7-----|
|----7---7---7------|-5--4"-|
|-0---0---0---0----|-----2-|
|----------------------|--------|
Repeat this riff ^ then this^

B.1
|---------------------------------------------------------------|
|---------------------------------------------------------------|
|------------------------------------9---8--------------------|
|-----7----7---7-----7----------------------10-9----7-9-|
|-0-0----0-----0-----6-----------------------------------------|
|---------------------------------------------------------------|

B.2
|--------------------------------------------------------------------------|
|--------------------------------------------------------------------------|
|-2-2-2-2-2-2-2-2-2-2-2-2-3-3-3-3-3-3--------------------------------------|
|-2-2-2-2-2-2-2-2-2-2-2-2-3-3-3-3-3-3-5-5-5-5-5-5-5-5-5-5-5--4-4-4-4-4-4-4-|
|-0-0-0-0-0-0-0-0-0-0-0-0-1-1-1-1-1-15-5-5-5-5-5-5-5-5-5-5--4-4-4-4-4-4-4-|
|-------------------------------------3-3-3-3-3-3-3-3-3-3-3--2-2-2-2-2-2-2-|

C.1
|--------------------------|
|--------------------------|
|----------4-4-4-4-3-3-3-3-|
|-2-2-2-2--4-4-4-4-3-3-3-3-|
|-2-2-2-2--2-2-2-2-1-1-1-1-|
|-0-0-0-0------------------|

D.1
|-------------------------------------------------------------------------|
|-------------------------------------------------------------------------|
|-------------------5-5---4-4---2-2---5-5-5-5-5-5-5-5---------3-3-3-3-3-3-|
|-2-2-2-2-2-2-2-2---5-5---4-4---2-2---5-5-5-5-5-5-5-5---4-4---3-3-3-3-3-3-|
|-2-2-2-2-2-2-2-2---3-3---2-2---0-0---3-3-3-3-3-3-3-3---4-4---1-1-1-1-1-1-|
|-0-0-0-0-0-0-0-0---------------------------------------2-2---------------|

E.1
|---------------------------------------|
|----7------------------------------9-|
|---------9-8-------12-11-9-11----|
|-9---9-------7-9-------------------|
|---------------------------------------|
|---------------------------------------|

E.2
|----------------------|
|----------------------|
|----------------------|
|----------------------|
|-7-------------------|
|----7-4-6-7-4-6-|

F.1
|----------------------------------------------------|
|----------------------------------------------------|
|----------4-4-4-4-3-3-3-3-----------4-4-4-4-3-3-3-3-|
|-2-2-2-2--4-4-4-4-3-3-3-3--2-2-2-2--4-4-4-4-3-3-3-3-|
|-2-2-2-2--2-2-2-2-1-1-1-1--2-2-2-2--2-2-2-2-1-1-1-1-|
|-0-0-0-0-------------------0-0-0-0------------------|
  . . . .

G.1 (I think this may be a synth, but im not sure, I tabbed it out anyway)
|----------------|
|----------------|
|----------------|
|-9----/17-16\-9-|
|----------------|
|----------------|

G.2
|--------------------------------------------------|
|--------------------------------------------------|
|--------------------------------------------------|
|-2-2-2-2-2-2-2-2----------------------------------|
|-2-2-2-2-2-2-2-2--5-4-44444-4-4-5-5-4-44444-4-4-5-|
|-0-0-0-0-0-0-0-0--3-2-22222-2-2-3-3-2-22222-2-2-3-|
                       ..... .         ..... .

H.1
|-----------------|
|-----------------|
|-----------------|
|-----------------|
|-3-2-22222-2-2-2-|
|-1-0-00000-0-0-0-|
      ..... .

  Visit MetalTabs.com for more metal tablature

bottom separator

Contact Us | Privacy Policy | Disclaimer
Copyright © 2001-2014 MetalTabs.com. All Rights Reserved.