top separator

Home

Forum

FAQ

Contact Us

Link to Us

MetalTabs.com logo

Bands

0-9

A

B

C

D

E

F

G

H

I

J

K

L

M

N

O

P

Q

R

S

T

U

V

W

X

Y

Z

Amon Amarth - "Bastards of a lying breed" Guitar Tab

Plain Text Version
More Amon Amarth Tabs

Hits: 6465
Rated: 4.25 out of 5 (12 votes)
Updated: 2004-05-13 08:47:49

By:

Corpsevomit98


#----------------------------------PLEASE NOTE---------------------------------#
#This file is the author's own work and represents their interpretation of the #
#song. You may only use this file for private study, scholarship, or research. #
#Unless specified otherwise, this is NOT an official tab from the band members.#
#------------------------------------------------------------------------------#

  Visit MetalTabs.com for more metal tablature
  
Band:  Amon Amarth
Album: The Crusher
Song:  Bastards of A Lying Breed

Copyright   Metal Blade Records
Version 1.0

Transcribed By: John the Unholy
Email:          Corpsevomit98@hotmail.com

Tuning (C) (CFC#F#GC)

Legend
  Tremolo Pick                  / or \ Slide to note
.  Palm Mute                     p     pull off
T  tap with pick or finger       h     hammer on

.1 = Guitar 1
.2 = Guitar 2

A.1
|-----------------|
|-----------------|
|-7-----8---7/8\7-|
|-7-8-7-8---7/8\7-|
|-5-8-7-6---5/6\5-|
|---6-5-----------|
  ^essentially  ^ These note are the same

B.1
|-------------------------------------------------------------|
|-------------------------------------------------------------|
|-------------------------------------------------------------|
|-0-7-0-7-0-7-0-5-0-5-0-5-----8---7---5---5---5---7---8-|
|-------------------------------------------------------------|
|-------------------------------0-0---0---0---0---0---0---0---|

C.1
|----------------------------------------------------------------|
|----------------------------------------------------------------|
|----------------------------------------------------------------|
|------------------8---------------------------------------------|
|--5---5---5---5-------5---5---5---7---6---6---6---5---7---3---6-|
|0---0---0---0---0---0---0---0---0---0---0---0---0---0---0---0---|
 .   .   .   .   .   .   .   .   .   .   .   .   .   .   .   .

D.1
|-----------------------------------------------------|
|-----------------------------------------------------|
|-----------------------------------------------------|
|-7-5-----------------------------------------------|
|-------7-8----10-8-5-7------8-7-5-7----8--|
|-----------------------------------------------------|

D.2
|------------------------------------------------------|
|------------------------------------------------------|
|------------------------------------------------------|
|------------------------------------------------------|
|-5-3------------------------------------------------|
|-------5-6----8-6-3-5------6-5-3-5-----6---|

E.1
|-------------------------------------------------------------|----------|
|-------------------------------------------------------------|----------|
|-------------------------------------------------------------|----------|
|---7---7---7---7---5---5---5---7---8---8---8---7---5---7---8-|----------|
|-0---0---0---0---0---0---0---0---0---0---0---0---0---0---0---|----------|
|-------------------------------------------------------------|-00-0-0-0-|

F.1
|------------------------------|
|------------------------------|
|---------8-----5------7-8-7---|
|-5---8-7-8-----5------7-8-7-8-|
|-5---8-7-6-----3------5-6-5-8-|
|-3---6-5--------------------6-|

G.1
|------------------------------------------|
|------------------------------------------|
|----------------------7-5---7-8-7----|
|-7-8-7-5---8-7---------------------8-|
|-------------------6---------------------|
|------------------------------------------|

G.2
|-------------------------------------------|
|-------------------------------------------|
|-------------------------------------------|
|-------------------------------------------|
|------------------6-----3----5-6-5----|
|-5-----3--6"-5-----------------------6-|

E.1
|-------|
|-------|
|-------|
|-8-7-5-|
|-8-7-5-|
|-6-5-3-|

  Visit MetalTabs.com for more metal tablature

bottom separator

Contact Us | Privacy Policy | Disclaimer
Copyright © 2001-2014 MetalTabs.com. All Rights Reserved.