top separator

Home

Forum

FAQ

Contact Us

Link to Us

MetalTabs.com logo

Bands

0-9

A

B

C

D

E

F

G

H

I

J

K

L

M

N

O

P

Q

R

S

T

U

V

W

X

Y

Z

Amon Amarth - "Annihilation of hammerfest" Guitar Tab

Plain Text Version
More Amon Amarth Tabs

Hits: 3230
Rated: 3.50 out of 5 (8 votes)
Updated: 2004-05-11 08:16:47

By:

Corpsevomit98


#----------------------------------PLEASE NOTE---------------------------------#
#This file is the author's own work and represents their interpretation of the #
#song. You may only use this file for private study, scholarship, or research. #
#Unless specified otherwise, this is NOT an official tab from the band members.#
#------------------------------------------------------------------------------#

  Visit MetalTabs.com for more metal tablature
  
Band:  Amon Amarth
Album: The Crusher
Song:  Annihilation Of Hammerfest

Copyright   Metal Blade Records
Version 1.0

Transcribed By: John the Unholy
Email:          Corpsevomit98@hotmail.com

Tuning (B) (BEADGB)

Legend
  Tremolo Pick                  / or \ Slide to note
.  Palm Mute                     p     pull off
T  tap with pick or finger       h     hammer on

.1 = Guitar 1
.2 = Guitar 2

A.1(fade in)
|-------------------------------|
|-------------------------------|
|-------------------------------|
|-------------------------------|
|---7-7---5-5-------8-8---8-8-7-|
|-0-----0-----0-0-0-----0-------|
  .     .     . . .     .

A.2 (play several times then let feedback ring)
|-------------------------------|
|-------------------------------|
|-------------------------------|
|-2-----------------------------|
|-2-----------------------------|
|-0-----------------------------|

B.1
|----------------------------------|
|----------------------------------|
|---9-9---7-7-------10-10--10-10-9-|
|---9-9---7-7-------10-10--10-10-9-|
|---7-7---5-5-------8--8---8--8--7-|
|-0-----0-----0-0-0------0---------|
  .     .     . . .      .

C.1
|--------------------------------|
|--------------------------------|
|----7--7-9-------------------|
|-9----------------9-----------|
|---------------10------9---7-|
|--------------------------------|

D.1
|----------------------------------------------------------------------------
|----------------------------------------------------------------------------
|----------------------------------------------------------------------------
|-11-11-11-11-11-11-11-11-11-11-11-12-12-12-12-12-12-12-12-12-14-14-14-14-14-
|-9--9--9--9--9--9--9--9--9--9--9--10-10-10-10-10-10-10-10-10-12-12-12-12-12-
|----------------------------------------------------------------------------

--------------------------------|
--------------------------------|
--------------------------------|
--14-14-14-14-12-12-12-12-12-11-|
--12-12-12-12-10-10-10-10-10-9--|
--------------------------------|

E.1 (I think this is played behind D.1 too, but Im not sure)
|-------------------------------------------------------|
|-------------------------------------------------------|
|-------------------------------------------------------|
|---7-9-----7-9------7-9-----9-7---7---7--5---5---5---5-|
|-7-----7-------7--7-----7-------7---7------5---5---5---|
|-------------------------------------------------------|

E.2
|-------------------------------------------------------|
|-------------------------------------------------------|
|-------------------------------------------------------|
|-9----------------10---------7------------5------------|
|-9----------------10---------7------------5------------|
|-7----------------8----------5------------3------------|

solo
|----------------------------------------------------------------------------
|----------------------------------------------------------------------------
|------------p.h--------------------------------------9---9-12---9-11----9---
|---9-10-9--7-7-7-7---7-9-10-/12-10-9-9h10p9p7-9-9------9------9------9----9-
|-7--------------------------------------------------------------------------
|----------------------------------------------------------------------------

-------------------------------------------------------------------------12--
----------------------------------------------------------------------11-----
-9-12-----9-11---9-11-12---11-12-14---12-14-15---1412-14-12-11----12--------
-------9---------------------------------------------------------------------
-----------------------------------------------------------------------------
-----------------------------------------------------------------------------

-15----12-15----12----12-14----1214---12-14-15--14-15-17--15-17-1919-19-19-
----11-------11----11-------11-----------------------------------------------
-----------------------------------------------------------------------------
-----------------------------------------------------------------------------
-----------------------------------------------------------------------------
-----------------------------------------------------------------------------

                        T        T         T        T        T        T
-19-19-20-20-20-20-20---20p15p12-20p15p12-20p15p12-20p15p12-19p15p12-19p15p12-
------------------------------------------------------------------------------
------------------------------------------------------------------------------
------------------------------------------------------------------------------
------------------------------------------------------------------------------
------------------------------------------------------------------------------

 T         T        T        T        T        T        T        T
-19p15p12-19p15p12-20p15p12-20p15p12-20p15p12-20p15p12-19p15p12-19p15p12------
------------------------------------------------------------------------------
------------------------------------------------------------------------------
------------------------------------------------------------------------------
------------------------------------------------------------------------------
------------------------------------------------------------------------------

  T        T        T        T        T       T
-19p15p12-19p15p12-17p15p12-17p15p12-17p15p12-17p15p12-------------------------
--------------------------------------------------------14b16-14b16-16b18-17b19
-------------------------------------------------------------------------------
-------------------------------------------------------------------------------
-------------------------------------------------------------------------------
-------------------------------------------------------------------------------

Behind Solo
|------------------|
|------------------|
|------------------|
|-2---------------|
|--------2--------|
|-----0-----32-|

F.1
|-----------------------------------|
|-----------------------------------|
|---9-9----7-7----10-10-------------|
|---9-9----7-7----10-10-------------|
|---7-7----5-5----8--8--------------|
|-0------0------0-------0-0-0-0-0-0-|
  .      .      .       . . . . . .

G.1
|-----------------|---------------|
|-----------------|---------------|
|-----------------|-F.1-Goes-Here-|
|-2-2-2-2-2-2-2-2-|---------------|
|-2-2-2-2-2-2-2-2-|---------------|
|-0-0-0-0-0-0-0-0-|---------------|

  Visit MetalTabs.com for more metal tablature

bottom separator

Contact Us | Privacy Policy | Disclaimer
Copyright © 2001-2014 MetalTabs.com. All Rights Reserved.