top separator

Home

Forum

FAQ

Contact Us

Link to Us

MetalTabs.com logo

Bands

0-9

A

B

C

D

E

F

G

H

I

J

K

L

M

N

O

P

Q

R

S

T

U

V

W

X

Y

Z

Amon Amarth - "Down The Slopes Of Death" Guitar Tab

Plain Text Version
More Amon Amarth Tabs

Hits: 5148
Rated: 3.75 out of 5 (8 votes)
Updated: 2004-05-03 04:46:06

By:

Corpsevomit98


#----------------------------------PLEASE NOTE---------------------------------#
#This file is the author's own work and represents their interpretation of the #
#song. You may only use this file for private study, scholarship, or research. #
#Unless specified otherwise, this is NOT an official tab from the band members.#
#------------------------------------------------------------------------------#

  Visit MetalTabs.com for more metal tablature
  
Band:  Amon Amarth
Album: Versus The World
Song:  Down the Slopes of Death

Copyright   Metal Blade Records
Version 1.0

Transcribed By: John the Unholy
Email:          Corpsevomit98@hotmail.com

Tuning (B) (BEADGB)

Legend
  Tremolo Pick
.  Palm Mute

.1 = Guitar 1
.2 = Guitar 2

A.1
|-------------------------------------------|
|-------------------------------------------|
|-------------------------------------------|
|-------------------------------------------|
|--7---------5-----5--7-8-7-----------------|
|-----0-0-0----0-0------------0-0-0-0-0-0-0-|
      . . .    . .            . . . . . . .

B.1
|------------------------------|
|------------------------------|
|------------------------------|
|-5-4-5---7-97---10-9-|
|------------------------------|
|------------------------------|

C.1
|-------------------------------------|
|-------------------------------------|
|-------------------------------------|
|-10---10---10---10---10---12---9---9-|
|----0----0----0----0----0----0---0---|
|-------------------------------------|
     .    .    .    .    .    .   .

D.1
|----------------------|--------|
|----------------------|--------|
|----------------------|--------|
|9-----7------9------7-|-7-9-10-|
|-0000---0000---0000---|--------|
|----------------------|--------|
  ....   ....   ....

E.1
|-----------------------------------------------------------------|
|-----------------------------------------------------------------|
|-----------------------------------------------------------------|
|-----------------------------------------------------------------|
|-10------9------10------9---12---9------7------9------7---7-9-10-|
|----0000---0000----0000---0----0---0000---0000---0000---0--------|
     ....   ....    ....   .    .   ....   ....   ....   .

F.1
|---------------------------------------------------------------------|
|---------------------------------------------------------------------|
|---------------------------------------------------------4-5-4-------|
|-2-222-2-222-2-222-5-555-----4-5-4------4-5-4------4-5-4-------4-5-4-|
|-2-222-2-222-2-222-5-555-3-3--------3-3--------3-3-------------------|
|-0-000-0-000-0-000-3-333---------------------------------------------|
    ...   ...   ...   ...

The last riff is riff B

  Visit MetalTabs.com for more metal tablature

bottom separator

Contact Us | Privacy Policy | Disclaimer
Copyright © 2001-2014 MetalTabs.com. All Rights Reserved.