top separator

Home

Forum

FAQ

Contact Us

Link to Us

MetalTabs.com logo

Bands

0-9

A

B

C

D

E

F

G

H

I

J

K

L

M

N

O

P

Q

R

S

T

U

V

W

X

Y

Z

Amon Amarth - "Bloodshed" Guitar Tab

Plain Text Version
More Amon Amarth Tabs

Hits: 7226
Rated: 4.29 out of 5 (7 votes)
Updated: 2004-04-30 05:07:39

By:

Corpsevomit98


#----------------------------------PLEASE NOTE---------------------------------#
#This file is the author's own work and represents their interpretation of the #
#song. You may only use this file for private study, scholarship, or research. #
#Unless specified otherwise, this is NOT an official tab from the band members.#
#------------------------------------------------------------------------------#

  Visit MetalTabs.com for more metal tablature
  
Band:  Amon Amarth
Album: Versus The World
Song:  Bloodshed

Copyright   Metal Blade Records
Version 1.0

Transcribed By: John the Unholy
Email:          Corpsevomit98@hotmail.com

Tuning (B) (BEADGB)

Legend
  Tremolo Pick              / or \ - slide up or down
.  Palm Mute                   p.h  - pinch harmonic

.1 = Guitar 1
.2 = Guitar 2

A.1
|------------------------------------------------------|
|------------------------------------------------------|
|------------------------------------------------------|
|------------------------------------------------------|
|-5-7777-5-7777-8-7777-55-77-88-7--79--555555577777777-|
|------------------------------------------------------|
  . .... . .... . .... .. .. .. .      ...............

B.1
|----------------------------------------------------|
|----------------------------------------------------|
|-7-9---7-9--10-9---7-9-10-910--------7-|
|----------------------------------------------------|
|----------------------------------------------------|
|----------------------------------------------------|

B.2
|--------------------------(2X)----------------------|
|----------------------------------------------------|
|-2-------------(2)-2-------------------3----------3-|
|-2-------------(2)-2-------------------3----------3-|
|-0-------------(0)-0-------------------1----------1-|
|----------------------------------------------------|
play first time without the notes in parentheses 2x then 2x with.

C.1
|-------|
|-------|
|-------|
|-2---2-|
|-2---2-|
|-0---0-|
  .   .
D.1
|----------------------------------------------------------|
|----------------------------------------------------------|
|-0-222-0-222-0-222-0--------------------------------------|
|-0-222-0-222-0-222-0-22222--2-2-2-2-2-2-2-2-2-2-2-2--2--2-|
|---000---000---000---00000--2-2-2-2-2-2-2-2-2-2-2-2--2--2-|
|----------------------------0-0-0-0-0-0-0-0-0-0-0-0--0--0-|
                                                      .  .

E.1
|-----------------------------------------------------------------
|-----------------------------------------------------------------
|-----------------------------------------------------------------
|---------------------------------5-7--5"-7--8"-7-5-7-8-7-
|-5-7--5"-7--8"-7-5-7-8-7---------------------------------
|-----------------------------------------------------------------

-------------------------------------------------------|
-------------------------------------------------------|
-------------------------------------------------------|
--3-5--3-5--6"-5-3-5-6-5---2---3-2---3-2-|
-------------------------------------------------------|
-------------------------------------------------------|

F.1
|------------------------------------------------------|
|------------------------------------------------------|
|---9-999---9999-9---77-777-----1010101-10---7777-7----|
|-7-------7--------7---------7-------------7-----------|
|------------------------------------------------------|
|------------------------------------------------------|

Solo
|---------------------------------------------------------------------------
|---------------------------------------------------------------------------
|---------------------------------------------------------------------------
|-7-9-10-12-12---12-14-14-14-13---10\9---10-9-7-9h10p9-7---7-9-9-9-9-10-10--
|---------------------------------------------------------------------------
|---------------------------------------------------------------------------

----------------------------------------------------------------------------
- p.h.----------p.h.-----------16-14-12-11h12------------16-14-12-12/14-14--
-------------------------14-------------------14---14-----------------------
--10b11--10-10-12b13--------14------------------------14--------------------
----------------------------------------------------------------------------
----------------------------------------------------------------------------

-------------------------------------------------------------------|
-14-14-14-16-18---12-12\11-11-11-11-11-11/14-14-14/16-16-16-16\----|
-------------------------------------------------------------------|
-------------------------------------------------------------------|
-------------------------------------------------------------------|
-------------------------------------------------------------------|

Behind Solo
|---------------------------------------------------|
|---------------------------------------------------|
|---------------------------------------------------|
|-------------7-777-7-7-7-5-555-5-5-5---------------|
|-7-777-7-7-7-5-555-5-5-5-3-333-3-3-3-5-555-5-5-5---|
|-5-555-5-5-5-------------------------3-333-3-3-3---|

  Visit MetalTabs.com for more metal tablature

bottom separator

Contact Us | Privacy Policy | Disclaimer
Copyright © 2001-2014 MetalTabs.com. All Rights Reserved.