top separator

Home

Forum

FAQ

Contact Us

Link to Us

MetalTabs.com logo

Bands

0-9

A

B

C

D

E

F

G

H

I

J

K

L

M

N

O

P

Q

R

S

T

U

V

W

X

Y

Z

Amon Amarth - "Death In Fire" Guitar Tab

Plain Text Version
More Amon Amarth Tabs

Hits: 22799
Rated: 4.00 out of 5 (33 votes)
Updated: 2005-05-08 08:26:34

By:

Corpsevomit98

Co-authored by:

Spellbound


#----------------------------------PLEASE NOTE---------------------------------#
#This file is the author's own work and represents their interpretation of the #
#song. You may only use this file for private study, scholarship, or research. #
#Unless specified otherwise, this is NOT an official tab from the band members.#
#------------------------------------------------------------------------------#

  Visit MetalTabs.com for more metal tablature
  
Band:  Amon Amarth
Album: Versus The World
Song:  Death In Fire

Copyright   Metal Blade Records
Version 1.0

Transcribed By: Corpsevomit98
			 Tapping Part by Spellbound

Email:          Corpsevomit98@hotmail.com

Tuning (B) (BEADGB)

.1 = Guitar 1
.2 = Guitar 2

Riff A.1
|---------------------|
|---------------------|
|---------------------|
|-2-------------4-5-4-|
|-2-------------2-3-2-|
|-0-------------------|

Riff B.1                                                              Riff BB.1
|-----------------------------------------------------------------------|------
|-----------------------------------------------------------------------|------
|-----------------------------------------------------------------------|------
|---7-9---7-9---12-10---10---9-10---7---7-9---7-9---12-10---10---9-10---|9-----
|-----------------------------------------------------------------------|--0-0-
|-0-----0-----0-------0----0------0---0-----0-----0-------0----0------0-|------

------------------------------------------------------------------------------|
------------------------------------------------------------------------------|
---------------------------------9-9-9-9-9-9-9-9-9-10-10-10-10-10-10----------|
-7-9---7-9---7---7-9---7-9---7---9-9-9-9-9-9-9-9-9-10-10-10-10-10-10--5-5-5-5-|
-----0-----0---0-----0-----0------------------------------------------5-5-5-5-|
----------------------------------------------------------------------3-3-3-3-|

Riff BB.2
|-------------------------------------------------------------------------|
|-------------------------------------------------------------------------|
|-9-9-9-9-9-9-9-9-9-9-9-9-9-9-9-5-5-5-5-5-5-5-5-5-5-4-4-4-4-4-4-4-4-4-4-4-|
|-9-9-9-9-9-9-9-9-9-9-9-9-9-9-9-5-5-5-5-5-5-5-5-5-5-4-4-4-4-4-4-4-4-4-4-4-|
|-7-7-7-7-7-7-7-7-7-7-7-7-7-7-73-3-3-3-3-3-3-3-3-3-2-2-2-2-2-2-2-2-2-2-2-|
|-------------------------------------------------------------------------|

Riff C.1
|-------------------------|
|-------------------------|
|-------------------------|
|-2-2-2-2-2-2-2-2-2-4-5-4-|
|-2-2-2-2-2-2-2-2-2-2-3-2-|
|-0-0-0-0-0-0-0-0-0-------|
  . . . . . . . . .



Riff D.1
****(Many thanks to Spellbound for this part)****
|---9*-------3*-------3*-----12*------3*----|
|-------------------------------------------|
|-------------------------------------------|
|-t14p7----t12p7----t9p7----t10p3-----t12p5-|
|-------------------------------------------|
|-------------------------------------------|

Riff D.2
|------------------------------------------------------------------------------
|------------------------------------------------------------------------------
|-2--2-----2-----(2)----------(2)-----2--2----2-------(2)------(2)-------------
|-2--2-----2-----(2)----------(2)-----2--2----2-------(2)------(2)----2--2-2---
|-0--0-----0-----(0)----------(0)-----0--0----0-------(0)------(0)----2--2-2---
|---------------------------------------------------------------------0--00---

-----------------------------------------|
-----------------------------------------|
-----------------------------------------|
-(2)----(2)------2--2------2----(2)---(2)|
-(2)----(2)------2--2------2----(2)---(2)|
-(0)----(0)------0--0------0----(0)---(0)|

*Play twice throughout without notes in parenthesis and then use the
 notes in parenthesis

Riff E.1
|------------------------------------------------------|
|------------------------------------------------------|
|-97---------------7-----------7---------------7-|
|-------10---9-10-----10-97------10-9---------|
|------------------------------------------------------|
|------------------------------------------------------|

Solo
|------------------------------------------------------------------------------
|------------------------------------------------------------------------------
|--------------------------------------------------------------12----12-14-----
|-/14-14p12-10-9-10-12-10------9------9-10-10-10-10-9------/14----12-----------
|--------------------------12-------------------------10----------------------
|------------------------------------------------------------------------------

-------------------------------------------------------------------------------
--------------------11p12h11---------------------------------11-11-11h12-11~---
--14b15-12----12-14---------12-----12----1214-14b15-12-14--------------------
-----------14------------------/14----12---------------------------------------
-------------------------------------------------------------------------------
-------------------------------------------------------------------------------

-------------------------------------------------------------------------------
-/16-16-14h16p14-12-11-12-14-12----/18----18-19-19-19-18------16----16-19----19
--------------------------------14------------------------19-----14-------14---
-------------------------------------------------------------------------------
-------------------------------------------------------------------------------
-------------------------------------------------------------------------------

---------------------------17----17-20----20-19--17----17-20-19\--|
-18--16----16-19----19-18-----16-------16-----------16------------|
--------14-------14-----------------------------------------------|
------------------------------------------------------------------|
------------------------------------------------------------------|
------------------------------------------------------------------|

Behind solo
|------------------------|-------|
|------------------------|-------|
|------------------------|-------|
|------------------------|-4-5-4-|
|-----2-3--5----3----|-2-3-2-|
|-0------------------2-|-------|
		end riff with  ^

Riff BB.1 played over this
Riff F.2
|-------------------------------------------------------------------------|
|-------------------------------------------------------------------------|
|-9-9-9-9-9-9-9-9-9-9-9-9-9-9-9-------------------------------------------|
|-9-9-9-9-9-9-9-9-9-9-9-9-9-9-9-5-5-5-5-5-5-5-5-5-5-4-4-4-4-4-4-4-4-4-4-4-|
|-7-7-7-7-7-7-7-7-7-7-7-7-7-7-75-5-5-5-5-5-5-5-5-5-4-4-4-4-4-4-4-4-4-4-4-|
|-------------------------------3-3-3-3-3-3-3-3-3-3-2-2-2-2-2-2-2-2-2-2-2-|

End with riff G.2 over the last half F.2 which is repeated
G.2
|------------------------------------------------|
|15b17-15b17-15b17-15b17-17b19-17b19-17b19-17b19-|
|------------------------------------------------|
|------------------------------------------------|
|------------------------------------------------|
|------------------------------------------------|

  Visit MetalTabs.com for more metal tablature

bottom separator

Contact Us | Privacy Policy | Disclaimer
Copyright © 2001-2014 MetalTabs.com. All Rights Reserved.