top separator

Home

Forum

FAQ

Contact Us

Link to Us

MetalTabs.com logo

Bands

0-9

A

B

C

D

E

F

G

H

I

J

K

L

M

N

O

P

Q

R

S

T

U

V

W

X

Y

Z

Amon Amarth - "... And Soon The World Will Cease To Be" Guitar Tab

Plain Text Version
More Amon Amarth Tabs

Hits: 6683
Rated: 3.94 out of 5 (17 votes)
Updated: 2004-04-04 09:00:07

By:

Corpsevomit98


#----------------------------------PLEASE NOTE---------------------------------#
#This file is the author's own work and represents their interpretation of the #
#song. You may only use this file for private study, scholarship, or research. #
#Unless specified otherwise, this is NOT an official tab from the band members.#
#------------------------------------------------------------------------------#

  Visit MetalTabs.com for more metal tablature
  
Band:  Amon Amarth
Album: Versus The World
Song:  ...And Soon The World Will Cease To Be

Copyright   Metal Blade Records
Version 1.0

Transcribed By: John the Unholy
Email:          Corpsevomit98@hotmail.com

Tuning (B) (BEADGB)

.1 = Guitar 1
.2 = Guitar 2

Riff A.1
|---------------------------------------------------|
|---------------------------------------------------|
|----------------------------------5-7-----5--4-5-4-|
|7-7-7-7/9-7-7-7-7/9-5-5-5-5-5-5--5-----3-----------|
|0-0-0-0---0-0-0-0---5-5-5-5-5-5--------------------|
|--------------------3-3-3-3-3-3--------------------|

Riff B.1
|----------------------|------------------|
|----------------------|------------------|
|---9-9/12\10-9-7-9----|---5-7---5--4-5-4-|
|-7-----------------10-|-5-----3----------|
|----This riff 3x------|------------------|
|----------------------|------------------|

Riff B.2
|-----------------------------------------------------------|
|-----------------------------------------------------------|
|-9--9--9--9--9--9--9--9-----------------7------------------|
|-9--9--9--9--9--9--9--9--5--5--5--5--7--7--7-----7-9-8-9-8-|
|-7--7--7--7--7--7--7--7--5--5--5--5--7--5--7-----7/9-8-9-8-|
|-------------------------3--3--3--3--5-----5----5/7-6-7-6-|

Riff C.1
|-----------------------------|------------------|
|---------This riff 3x--------|------------------|
|-----------------------------|-----------999999-|
|-7-7-7-7-7-7-7-7-7-7-7-7-777-|-7-7-7-7-7-777777-|
|-0-0-0-0-0-0-0-0-0-0-0-0-000-|-0-0-0-0-0--------|
|-----------------------------|------------------|
  . . . . . . . . . . . . ...   . . . . .

Riff D.1
|----------------------------------|-------------------------------------|
|----------------------------------|-------------------------------------|
|----------------------------------|-------------------------------------|
|---10---10---10---9---9---9-|---12---12---12---10---10---10-|
|-0-----0-----0-----0----0----0----|-8-----8-----8-----8-----8-----8-----|
|-----------repeat this 2x---------|---------------Repeat this 2x--------|
  .  .  .  .  .  .  . .  . .  . .    .  .  .  .  .  .  .  .  .  .  .  .

Riff E.1
|------------------------------------------------------------------------------
|------------------------------------------------------------------------------
|------------------------------------------------------------------------------
|----------10---9-----------------10----9-----------------11---9---------
|-0-0-0-0------0----0-0-7-0-0-0-0------0-----0-0-7---------------------------
|-----------------------------------------------------0-0-0-0-----0----0-0-0-0-

------------------------------|
------------------------------|
-------7-10-7-9-7---9-10-|
------------------------------|
------------------------------|
-0-0--------------------------|

Riff G.1
|--------------------------------------------------------------------------|
|--------------------------------------------------------------------------|
|-10---9---------------------------------7----7--------9-----9-----9-|
|-------------10-7---107----5-7-8-----8----8-10----10----10---|
|--------------------------------------------------------------------------|
|--------------------------------------------------------------------------|

Riff H.1
|----------------|
|----------------|
|-5----5/9-9\7---|
|-5----5/9-9\7-7-|
|-3----3/77\5-7-|
|--------------5-|

Solo
|----------------------------------------------------------------------------
|-----12----11-------------12---11-------------------------------------------
|-999----9-----9--7-9999-9----9------12-----------------------12-14-14-14-14-
|----------------------------------------12-1212--1212-1212-----------------
|----------------------------------------------------------------------------
|----------------------------------------------------------------------------

-----------------------------------------------------------------------------
--------------------------12----12-11-----12-11\-----12-11-12-15-17-17-17----
-14/15-15-15/17-17\----9------9--------9----------9--------------------------
-----------------------------------------------------------------------------
-----------------------------------------------------------------------------
-----------------------------------------------------------------------------

-----------------------------------------------------------------------------
-15h17-15h17p15p13-12-12-12-1212-1212-12-12-12-12-12/13-13-13-13-13/15-15----
-----------------------------------------------------------------------------
-----------------------------------------------------------------------------
-----------------------------------------------------------------------------
-----------------------------------------------------------------------------

----------|
-15/17-17-|
----------|
----------|
----------|
----------|

Behind Solo
|--------------------------------------------------|
|--------------------------------------------------|
|-9--9--9--9--9--9--9--9-------------5-7/9-9-9\7---|
|-9--9--9--9--9--9--9--9--5--5--5--5-5-7/9-9-9\7-7-|
|-7--7--7--7--7--7--7--7--5--5--5--5-35/7-7-7\5-7-|
|-------------------------3--3--3--3-------------5-|

I.1
|------------------------------------------------|
|------------------------------------------------|
|------------------------------------------------|
|9--9-12-10---10--10-12-10---9--9-7-9---7--7-9-5-|
|------------------------------------------------|
|------------------------------------------------|

I.2
|------------------------------------------------|
|------------------------------------------------|
|-------------5--------------4----------2--------|
|2------------5--------------4----------2--------|
|2------------3--------------2----------0--------|
|0-----------------------------------------------|

J.1
|---------------------------------------|
|---------------------------------------|
|---------------------------------------|
|-------------------------------------2-|
|-----9----------10-----5----5----2-|
|-0------0--8"------0-----0----0-0-|
        Second guitar holds note out  ^

K.1
|----------|
|----------|
|9-12-10-9-|
|----------|
|----------|
|----------|

There you go bitches

  Visit MetalTabs.com for more metal tablature

bottom separator

Contact Us | Privacy Policy | Disclaimer
Copyright © 2001-2014 MetalTabs.com. All Rights Reserved.