top separator

Home

Forum

FAQ

Contact Us

Link to Us

MetalTabs.com logo

Bands

0-9

A

B

C

D

E

F

G

H

I

J

K

L

M

N

O

P

Q

R

S

T

U

V

W

X

Y

Z

Amon Amarth - "Metalwrath" Guitar Tab

Plain Text Version
More Amon Amarth Tabs

Hits: 5183
Rated: 3.70 out of 5 (10 votes)
Updated: 2003-12-28 09:23:10

By:

Corpsevomit98


#----------------------------------PLEASE NOTE---------------------------------#
#This file is the author's own work and represents their interpretation of the #
#song. You may only use this file for private study, scholarship, or research. #
#Unless specified otherwise, this is NOT an official tab from the band members.#
#------------------------------------------------------------------------------#

  Visit MetalTabs.com for more metal tablature
  
Band:  Amon Amarth
Album: Avenger
Song:  Metalwrath

Copyright   Metal Blade
Version 1.1  November 25, 2003

Transcribed By: John the Unholy
Email:          Corpsevomit98@hotmail.com


Riff 1
|-------------------------------|
|-------------------------------|
|-------------------------------|
|------4----2-------------------|
|------2----0--2/3-3-3-3-3-3-3--|
|-0000---00----0/1-1-1-1-1-1-1--|
  ....   ..        . . . . . .

Riff 2
|-------------------------------------------------|
|-------------------------------------------------|
|-------------------------------------------------|
|-------------------------------------------------|
|-------------------------------------------------|
|-0-0-0-0-0-0-0-0-0-0-0-0-0-0-0-0-0-0-0-0-0-0-0-0-|
  . . . . . . . . . . . . . . . . . . . . . . . .

Riff 3
|-------------------------------------------------------------------------|
|-------------------------------------------------------------------------|
|--------------2---------------------------------------------------------|
|-----4-----------------0"----2-0-2--------2-0-2--------------------|
|-2------2-------2--------------------4--------------0------2-0-2-|
|-------------------------------------------------------------------------|

Riff 3a
|------------------------|
|------------------------|
|------------------------|
|------------------------|
|-2-----4-----2----4-5-2-|
|-0-----2-----0----2-3-0-|

Riff 4					                   last time
|---------------------------------------------------------------------|---
|---------------------------------------------------------------------|---
|---------------------------------------------------------------------|---
|-----6------9------4------6------4--6--9---------8-9--------|---
|-6------6------6----------------------------------6-------9"-6"-|-2-
|---------------------------------------------------------------------|-0-

------------------------------------|
------------------------------------|
------------------------------------|
------------------------------------|
-44-4-44-4-44-4-44-4-44-4-44-4-44-4-|
-22-2-22-2-22-2-22-2-22-2-22-2-22-2-|
 ..   ..   ..   ..   ..   ..   ..

Riff 5
|---------------------------------------------------------|
|---------------------------------------------------------|
|---------------------------------------------------------|
|-4--2-4--2-------------------------------------------|
|-----------------44-4-44-4-44-4-44-4-44-4-44-4-44-4-44-4-|
|-----------------22-2-22-2-22-2-22-2-22-2-22-2-22-2-22-2-|
	         ..   ..   ..   ..   ..   ..   ..   ..

Riff 6
|-------------|
|-------------|
|-------------|
|-------------|
|-4-5-2-4-5-2-|
|-2-3-02-3-0-|

Riff 1  8x
Riff 2
Riff 1  4x
Riff 3 with 3a  2x
Riff 4  4x
Riff 6
Riff 1 -6x
Riff 5  4x
Riff 3  2x
Riff 4  4x
Riff 5  8x

Feel free to correct me. I'm pretty sure all of it is correct though.
But if you feel the need to correct me do so.

  Visit MetalTabs.com for more metal tablature

bottom separator

Contact Us | Privacy Policy | Disclaimer
Copyright © 2001-2014 MetalTabs.com. All Rights Reserved.