top separator

Home

Forum

What's New

Submit a Tab

FAQ

Links

Contact Us

Link to Us

MetalTabs.com logo

Bands

0-9

A

B

C

D

E

F

G

H

I

J

K

L

M

N

O

P

Q

R

S

T

U

V

W

X

Y

Z

Search

What

Where
 

Krisiun - "Meanest Evil" Guitar Tab

Plain Text Version
More Krisiun Tabs

Hits: 4266
Rated: 2.71 out of 5 (7 votes)
Updated: 2003-12-07 05:44:05

 

By:

Chris Rezendes

sendpm.gif

email.gif

Important note
We did our best to reach Krisiun and ask for their permission to publish this tab. Unfortunately they did not respond to our requests or we could not find a way to contact them. This tab is available online until Krisiun tells us to take it down.


#----------------------------------PLEASE NOTE---------------------------------#
#This file is the author's own work and represents their interpretation of the #
#song. You may only use this file for private study, scholarship, or research. #
#Unless specified otherwise, this is NOT an official tab from the band members.#
#------------------------------------------------------------------------------#

  Visit MetalTabs.com for more metal tablature
  
=========================================================================================
Song: Meanest Evil
Artist: Krisiun
Album: Black Force Domain

Tabbed by Chris Rezendes (dudemcrude@yahoo.com)
Date started tab: 9/15/03
Date finished tab: 9/15/03

Tuning: Eb
Copy: First

Notation Key
~: vibrato
^: bend
.: palm mute
r: release
t: trill
p: pull-off
h: hammer-on
x: ghost note
/: slide up
\: slide down

Comments: It's a pretty simple song, so you shouldn't have any problem getting it.  Don't
ask me to tab any more songs off of this album, because the production is so horrendous
you can't hear at least 1 riff in almost every single song.  Just so happens I was
listening to this song and I noticed that every riff was more or less decipherable as
long as I was willing to put forth the effort.  And so I have.  If there are any mistakes
it would be very unlikely any of you would notice given the muddy production, but if you
do, I'd greatly appreciate it if you could show me so I can fix it. Later.

If you have any requests visit- http://groups.yahoo.com/group/realmetalmusicians/
=========================================================================================

Riff 1 x12
e|-------------------|
B|-------------------|
G|-------------------|
D|-------------------|
A|-------------------|
E|--5t6-4t5-3t4-2t3--|

Riff 2 x4
e|-----------------------------------|-----------------------------------|
B|-----------------------------------|-----------------------------------|
G|-----------------------------------|-----------------------------------|
D|-----------------------------------|-----------------------------------|
A|------------------555-444-777-666--|------------------555-444----------|
E|--333-222-777-666------------------|--333-222-777-666---------555-444--|

            TIME- 0:34

Riff 1 x13
e|-------------------|
B|-------------------|
G|-------------------|
D|-------------------|
A|-------------------|
E|--5t6-4t5-3t4-2t3--|

Riff 3A x3
e|-------------------|-------------------|---------------------------|
B|-------------------|-------------------|---------------------------|
G|-------------------|-------------------|---------------------------|
D|-------------------|-------------------|---------------------------|
A|------111----------|------111----------|------111-555-444----------|
E|--333-----333-222--|--333-----333-222--|--333-------------333-222--|

Riff 3B x1
e|-------------------|-------------------|-------------------|
B|-------------------|-------------------|-------------------|
G|-------------------|-------------------|-------------------|
D|-------------------|-------------------|-------------------|
A|------111----------|------111----------|------111----------|
E|--333-----333-222--|--333-----333-222--|--333-----333-222--|

            TIME- 1:07

Riff 1 x13
e|-------------------|
B|-------------------|
G|-------------------|
D|-------------------|
A|-------------------|
E|--5t6-4t5-3t4-2t3--|

Riff 4A x3
e|-----------------------------------------------|
B|-----------------------------------------------|
G|-----------------------------------------------|
D|--222-333-----555-666-----222-333-----222------|
A|----------------------------------555----------|
E|----------000---------000-----------------000--|
            ...         ...                 ...

Riff 4B x1
e|-----------------------------------------|
B|-----------------------------------------|
G|--4--5-------7--8-------4--5--2--4-------|
D|--2--3-------5--6-------2--3--0--2-------|
A|-----------------------------------------|
E|--------000--------000--------------000--|
          ...        ...              ...

Riff 4A x8
e|-----------------------------------------------|
B|-----------------------------------------------|
G|-----------------------------------------------|
D|--222-333-----555-666-----222-333-----222------|
A|----------------------------------555----------|
E|----------000---------000-----------------000--|
            ...         ...                 ...

            TIME- 2:01

Riff 5 x25
e|---------------------------|
B|---------------------------|
G|---------------------------|
D|--5-----4-----5-----4------|
A|----2-----2-----2-----2----|
E|------2-----2-----2-----2--|

            TIME- 2:46

Riff 6 x19
    Guitar 1                       Guitar 2
  e|----------------|            e|----------------|
  B|----------------|            B|--666-777-------|
  G|----------------|            G|----------8765--|
  D|----------------|            D|----------------|
  A|--444-555-------|            A|----------------|
  E|----------6543--|            E|----------------|

            TIME- 3:05

Riff 7 x2 (under solo)
e|-------------------------------------------------------|
B|-------------------------------------------------------|
G|-------------------------------------------------------|
D|-------------------------------------------------------|
A|-------------------------------------------------------|
E|--777777777777-666666666666-555555555555-444444444444--|

Riff 8 x2 (under solo)
e|-----------------------------|
B|-----------------------------|
G|-----------------------------|
D|-----------------------------|
A|--555555555555-666666666666--|
E|-----------------------------|

Riff 9 x11 (under solo)
e|---------------|
B|---------------|
G|---------------|
D|---------------|
A|------------6--|
E|--333333333-4--|

            TIME- 3:38

Riff 1 x14
e|-------------------|
B|-------------------|
G|-------------------|
D|-------------------|
A|-------------------|
E|--5t6-4t5-3t4-2t3--|

Riff 3A x4
e|-------------------|-------------------|---------------------------|
B|-------------------|-------------------|---------------------------|
G|-------------------|-------------------|---------------------------|
D|-------------------|-------------------|---------------------------|
A|------111----------|------111----------|------111-555-444----------|
E|--333-----333-222--|--333-----333-222--|--333-------------333-222--|

            TIME- 4:13

Fig. 1 x1
e|-----|-----------|-----------|---------------|
B|-----|-----------|-----------|---------------|
G|-----|-----------|-----------|---------------|
D|-----|--3--------|--3--------|--3------------|
A|--4--|--1--5--4--|--1--5--4--|--1--5--4-5-4--|
E|--2--|-----3--2--|-----3--2--|-----3--2-3-2--|

  Visit MetalTabs.com for more metal tablature

bottom separator

Contact Us | Privacy Policy | Disclaimer | Legal Notice
Copyright © 2001-2014 MetalTabs.com. All Rights Reserved.