top separator

Home

Forum

What's New

Submit a Tab

FAQ

Links

Contact Us

Link to Us

MetalTabs.com logo

Bands

0-9

A

B

C

D

E

F

G

H

I

J

K

L

M

N

O

P

Q

R

S

T

U

V

W

X

Y

Z

Search

What

Where
 

Destruction - "Curse The Gods" Guitar Tab

Plain Text Version
More Destruction Tabs

Hits: 15118
Rated: 4.50 out of 5 (8 votes)
Updated: 2002-05-27 11:43:32

 

By:

death8699

sendpm.gif

email.gif

Important note
This tab is available online because we obtained explicit permission from Destruction or their label.


#----------------------------------PLEASE NOTE---------------------------------#
#This file is the author's own work and represents their interpretation of the #
#song. You may only use this file for private study, scholarship, or research. #
#Unless specified otherwise, this is NOT an official tab from the band members.#
#------------------------------------------------------------------------------#

  Visit MetalTabs.com for more metal tablature
  
        D E S T R U C T I O N - C U R S E  T H E  G O D S [L i v e]
                   From the Album LIVE WITHOUT SENSE
                       Copyright 1989 STEAMHAMMER

                           New Version - FEB '02

Originally Transcribed by: Marco Vergani [marco_vergani@inwind.it]
           New Version by: death8699 [ArchEnemies@aol.com]

For Questions, Comments, Newest Version, or Corrections contact us

Check Out Death8699.com, With More Transcriptions On It:
 http://www.death8699.com

.  - palm mute                  /  - slide up to
\  - slide down to              ~  - vibrato
"  - tremelo picking           ( ) - ghost note
b  - bend                       h  - hammer-on
fb - full bend (1 step)         p  - pull-off
hb - half bend (1/2 step)       r  - release a bend
t  - tapping                    ah - artificial harmonic

Tune Gtr to E [Standard]

--C U R S E  T H E  G O D S--

[Intro]                              [End]
[----------------------------------------]
[----------------------------------------]
[*--------------------------------------*][Gtr.1]
[*--------------------------------------*]
[--7------5------3---5------2------------]
[--5------3------1---3------0------------]
                            ^
                          [Hold]

[----------------------------------------]
[----------------------------------------]
[*--------------------------------------*][Bass]
[*--------------------------------------*]
[--0-------------------------------------]
[---------3------1---3------0------------]
                            ^
                          [Hold]

[Clean tone]
[----------------------------------------]
[----------------------------------------]
[*----------------------------7--9------*][Gtr.2]
[*--------[[tacet]]--------10------10---*]
[----------------------------------------]
[----------------------------------------]


[Distortion]
[--------------------------------------------------------]
[--------------------------------------------------------]
[*------------------------------------------------------*][Gtr.2]
[*------------------------------------------------------*]
[--10--\--9----7--5--------5--\--3----------------2------]
[--------------------8--7-------------6--5--3--5--0------]
          ^                      ^                ^


[Band Pause]


[Riff 1]
[--------------------------------------------------]
[--------------------------------------------------]
[*------------------------------------------------*][Gtrs.1&2]
[*------------------------------------------------*]
[--------------------------------------------------]
[--0--0--0--0--0--0--0--0--0--0--0--0--0--0--0--0--]
   .  .  .  .  .  .  .  .  .  .  .  .  .  .  .  .

                                        [End Riff 1]
[--------------------------------------------------]
[--------------------------------------------------]
[*------------------------------------------------*][Gtrs.1&2]
[*------------------------------------------------*]
[--------------------------------------------------]
[--0--0--0--0--0--0--0--0--0--0--0--0--0--0--0--0--]
   .  .  .  .  .  .  .  .  .  .  .  .  .  .  .  .


[Riff 2]
[--------------------------------------------------]
[--------------------------------------------------]
[*------------------------------------------------*][Gtrs.1&2]
[*------------------------------------------------*]
[----7--8-----5--7-----3--5-----2--3-----0--2------]
[-0--------0--------0--------0--------0--------0---]
  .  .  .  .  .  .  .  .  .  .  .  .  .  .  .  .

[--------------------------------------------------]
[--------------------------------------------------]
[*------------------------------------------------*][Gtrs.1&2]
[*------------------------------------------------*]
[--------------------0--2--------------------2-<2>-]
[--3--5--0--2--3--0--------0--3--5--0--2--3--0-<0>-]
   .  .  .  .  .  .  .  .  .  .  .  .  .  .  .

[End Riff 2]
[----------]
[----------]
[*--------*][Gtrs.1&2]
[*--------*]
[--2-------]
[--0-------]
   ^
 [Hold]


[Fill 1] <w/Riff 2>
[-0--12-12-13--0--0--10--12--0--0--8--10---]
[------------------------------------------]
[*----------------------------------------*][Gtr.2]
[*----------------------------------------*]
[------------------------------------------]
[------------------------------------------]

                                [End Fill 1]
[--0--0--7--8--0--0--7__8__7\5-------------]
[-------------------------------6~~~~~~~~~\]
[*----------------------------------------*][Gtr.2]
[*----------------------------------------*]
[------------------------------------------]
[------------------------------------------]


[Riff 3]
[-----------------------------------------------]
[-----------------------------------------------]
[*---------------------------------------------*][Gtrs.1&2]
[*---------------------------------------------*]
[----7--8-----5--7-----3--5-----2--3-----0--2---]
[-0--------0--------0--------0--------0---------]
  .  .  .  .  .  .  .  .  .  .  .  .  .  .  .


[Riff 4]                                        [End Riff 4]
[----------------------------------------------------------]
[----------------------------------------------------------]
[*--------------------------------------------------------*][Gtrs.1&2]
[*--------------------------------------------------------*]
[----7__8-----5__7-----3__5------2__3----------------------]
[-0--------0--------0--------0---------0--4444444444444444-]
  .        .        .        .         .  ................


[Riff 5]                              [End Riff 5]
[------------------------------------------------]
[------------------------------------------------]
[-----------------------------------------------*][Gtrs.1&2]
[-----------------------------------------------*]
[----7__8-----5__7-----3__5-----2__3-------2-----]
[-0--------0--------0--------0--------003-----4--]
  .        .        .        .        ...


[Riff 6]
[----------------------------------------------]
[----------------------------------------------]
[*--------------------------------------------*][Gtrs.1&2]
[*-4--------4--------4------------------------*]
[--2-222222-2-222222-2-222222--3--222--5--222--]
[----------------------------------------------]
   ^ ...... ^ ...... ^ ......  .  ...  .  .

                                    [End Riff 6]
[----------------------------------------------]
[----------------------------------------------]
[*--------------------4-3-2-------------------*][Gtrs.1&2]
[*-4--------4---------------4-3-2-------------*]
[--2-222222-2-222222--------------5-4-3-2------]
[-----------------------------------------5-4--]
   ^ ...... ^ ......


[Riff 7]
[--------------------------------------------------------------]
[--------------------------------------------------------------]
[*------------------------------------------------------------*][Gtrs.1&2]
[*-----------------3-------------------3-------------------3--*]
[----3-------------1-----3-------------1-----3-------------1---]
[-0--1--0--000--0-----0--1--0--000--0-----0--1--0--000--0------]
  .     .  ...  .  ^  .     .  ...  .  ^  .     .  ...  .  ^

                         [End Riff 7]
[-----------------------------------]
[-----------------------------------]
[*---------------------------------*][Gtrs.1&2]
[*---------------------------------*]
[-----3-----------------------------]
[--0--1--0--0--1--11111--0--00000---]
   .     .  .  .  .....  .  .....


[Riff 8]
[--------------------------------------------------------------]
[--------------------------------------------------------------]
[*------------------------------------------------------------*][Gtrs.1&2]
[*-----------------3-------------------3-------------------3--*]
[----3-------------1-----3-------------1-----3-------------1---]
[-0--1--0--000--0-----0--1--0--000--0-----0--1--0--000--0------]
  .     .  ...  .  ^  .     .  ...  .  ^  .     .  ...  .  ^

                       [End Riff 8]
[---------------------------------]
[---------------------------------]
[*-------------------------------*][Gtrs.1&2]
[*-------------------2-----1-----*]
[-----3-----------3-----3-----2---]
[--0--1--0--0--1------------------]
   .     .  .  .


[Riff 9]
[--------------------------------------------------------]
[--------------------------------------------------------]
[*------------------------------------------------------*][Gtrs.1&2]
[*-5--------4--------5--------2--------5----------------*]
[--3--333---2--222---3--333---0--000---3--333---5--------]
[-----------------------------------------------3--333---]
   ^  ...   ^  ...   ^  ....  ^  ...   ^  ....  ^  ...

          [End Riff 9]
[--------------------]
[--------------------]
[*------------------*][Gtrs.1&2]
[*-7--------5-------*]
[--5--333---3--333---]
[--------------------]
   ^  ...   ^  ...


[Riff 9.a]
[--------------------------------------------------------]
[--------------------------------------------------------]
[*------------------------------------------------------*][Gtr.2]
[*-5--------4--------5--------2--------5----------------*]
[--3--------2--------3--------0--------3--------5--------]
[-----------------------------------------------3--------]
   ^        ^        ^        ^        ^        ^

[--------------------]
[--------------------]
[*------------------*][Gtr.2]
[*-7--------5-------*]
[--5--------3--------]
[--------------------]
   ^        ^


[Riff 10]
[----------------------------------------------]
[----------------------------------------------]
[*--------------------------------------------*]Gtrs.1&2]
[*-------5\4------4--------5---------2--------*]
[--------3\2--22--2----22--3__0--00--0----00---]
[--<00>----------------------------------------]
    ..        ..  ^    ..        ..  ^    ..
 ______________________________________________
|1.                                            |
[----------------------------------------------]
[----------------------------------------------]
[*--------------------------------------------*][Gtrs.1&2]
[*-5\4------4---------------------------------*]
[--3\2--22--2----22--2__3__2-----2-------------]
[-----------------------------3-----3--5--5----]
        ..  ^    ..           .  .  .  .  .
 ______________________________________________
|2.                                [End Riff 10]
[----------------------------------------------]
[----------------------------------------------]
[*--------------------------------------------*][Gtrs.1&2]
[*-5\4------4---------------------------------*]
[--3\2--22--2--22--2__3__2-----2---------------]
[---------------------------3-----3--2--3--0---]
        ..  ^  ..           .  .  .  .  .  .


[Riff 10.a]                                        [2tx]
[----------------------------------------------]
[----------------------------------------------]
[*--------------------------------------------*]Gtrs.1&2]
[*-------5\4------4--------5---------2--------*]
[--------3\2--2"--2----2"--3__0--0"--0----0"---]
[--<0">----------------------------------------]
    .         .   ^    .         .   ^    .
 ______________________________________________
|1.                                            |
[----------------------------------------------]
[----------------------------------------------]
[*--------------------------------------------*][Gtrs.1&2]
[*-5\4------4---------------------------------*]
[--3\2--2"--2----2"--2__3__2-----2-------------]
[-----------------------------3-----3--5--5----]
        .   ^    .            .  .  .  .  .
 ______________________________________________
|2.                              [End Riff 10.a]
[----------------------------------------------]
[----------------------------------------------]
[*--------------------------------------------*][Gtrs.1&2]
[*-5\4------4---------------------------------*]
[--3\2--2"--2--2"--2__3__2-----2---------------]
[---------------------------3-----3--2--3--0---]
        .   ^  .            .  .  .  .  .  .



[Riff 11]
[-------------------------------------------------------]
[-------------------------------------------------------]
[*-----------------------------------------------------*][Gtrs.1&2]
[*-10\9------9--\------------------------9\8------8\5--*]
[--8-\7--77--7--\-----------0--2--3------7\6--66--6\3---]
[------------------0--2--3-----------00-----------------]
         ..  ^     .  .  .  .  .  .  ..       ..

                        [End Riff 11]
[-----------------------------------]
[-----------------------------------]
[*---------------------------------*][Gtrs.1&2]
[*-----5\4------4------------------*]
[--33--3\2--22--2__0--00--3--2------]
[-------------------------1--0--00--]
   ..       ..        ..        ..


[Riff 11.a]
[------------------------------------------------------]
[------------------------------------------------------]
[*----------------------------------------------------*][Gtrs.1&2]
[*-10\9------9----------------------------------------*]
[--8-\7--7"--7----------------0"--2"--3"------7"--6"---]
[-----------------0"--2"--3"--------------0"-----------]
         @   ^    @   @   @   @   @   @   @   @   @

                    [End Riff 11.a]
[---------------------------------]
[---------------------------------]
[*-------------------------------*][Gtrs.1&2]
[*-------------------------------*]
[--6"--3"--5"--2"--0"--3--2-------]
[----------------------1--0--0"---]
   @   @   @   @   @         @


[Lead Melody]
[--------------------------------------------------------]
[--12--8--0"--8--12--8--0"--8--12--8--0"--8--12--8--0"---]
[*------------------------------------------------------*][Gtrs.1&2]
[*------------------------------------------------------*]
[--------------------------------------------------------]
[--------------------------------------------------------]


[--------------------------------------------------------]
[--12--8--0"--8--12--8--0"--8--12--8--0"--8--12--8--0"---]
[*------------------------------------------------------*][Gtrs.1&2]
[*------------------------------------------------------*]
[--------------------------------------------------------]
[--------------------------------------------------------]


[-------10----8----7__8__7----------7--------------------]
[-----------------------------10---------10----8---------]
[*-9----------------------------------------------------*][Gtrs.1&2]
[*------------------------------------------------------*]
[--------------------------------------------------------]
[--------------------------------------------------------]


[--------------------------------------------------------]
[--7__8__7--------------15--0"--13--0"--12--0"--10--0"---]
[*------------9----7------------------------------------*][Gtrs.1&2]
[*------------------------------------------------------*]
[--------------------------------------------------------]
[--------------------------------------------------------]


[--------------------------------------------------------]
[--13--0"--12--0"--10--0"--8"--12--0"--10--0"--8--0"-----]
[*------------------------------------------------------*][Gtrs.1&2]
[*------------------------------------------------------*]
[--------------------------------------------------------]
[--------------------------------------------------------]


[--------------------------------------17--0"--15"--0"---]
[--7--0"--10--0"--8--0"--7--0"--5--0"--------------------]
[*------------------------------------------------------*][Gtrs.1&2]
[*------------------------------------------------------*]
[--------------------------------------------------------]
[--------------------------------------------------------]


[--14--0"--15--0"--17--0"--15--0"--14--0"--15--0"--17----]
[--------------------------------------------------------]
[*------------------------------------------------------*][Gtrs.1&2]
[*------------------------------------------------------*]
[--------------------------------------------------------]
[--------------------------------------------------------]


[--0"--15--0"--14--0"--15--0"--14--0"--12--0"--14--0"----]
[--------------------------------------------------------]
[*------------------------------------------------------*][Gtrs.1&2]
[*------------------------------------------------------*]
[--------------------------------------------------------]
[--------------------------------------------------------]


[--12"--10"--8"--7"--10"--8"--7"--5"--8"--7"--5"---------]
[-------------------------------------------------8"-----]
[*------------------------------------------------------*][Gtr.1]
[*------------------------------------------------------*]
[--------------------------------------------------------]
[--------------------------------------------------------]


[--20"--19"-17"-15"-19"--17"-15"-14"-17"-15"-14"--12"----]
[--------------------------------------------------------]
[*------------------------------------------------------*][Gtr.2]
[*------------------------------------------------------*]
[--------------------------------------------------------]
[--------------------------------------------------------]


[---------------------------------------17fb~~~~~~~~~~~~\]
[--13--0"--12--0"--10--0"--8--0"--7--/-------------------]
[*------------------------------------------------------*][Gtrs.1&2]
[*------------------------------------------------------*]
[--------------------------------------------------------]
[--------------------------------------------------------]


[A] <Under the solo>
[--------------------------------------]
[--------------------------------------]
[*------------------------------------*][Gtr.1]
[*-5----------------------------------*]
[--3-33333333333333333333333333333333--]
[--------------------------------------]
     ................................

                                   [End]
[--------------------------------------]
[--------------------------------------]
[*------------------------------------*][Gtr.1]
[*------------------------------------*]
[--2-----------------------------------]
[--0-00000000000000000000000000000000--]
     ................................


[B] <Under the solo>                                [End]
[-------------------------------------------------------]
[-------------------------------------------------------]
[*-----------------------------------------------------*][Gtr.2]
[*-----------------------------------------------------*]
[--5--5--5--5---4--4--4--4---3--3--3--3---2--2--2--2----]
[--3--3--3--3---2--2--2--2---1--1--1--1---0--0--0--0----]
   ^            ^            ^            ^


[Fill 2]                                 [End Fill 2]
[---------------------------------------------------]
[---------------------------------------------------]
[*-4-3-2-------------------4-3-2-------------------*][Gtrs.1&2]
[*-------4-3-2-------------------4-3-2-------------*]
[--------------5-4-3-2-----------------5-4-3-2------]
[----------------------5-4---------------------5-4--]


Check Out Death8699.com, With More Transcriptions On It:
 http://www.death8699.com

  Visit MetalTabs.com for more metal tablature

bottom separator

Contact Us | Privacy Policy | Disclaimer | Legal Notice
Copyright © 2001-2014 MetalTabs.com. All Rights Reserved.