top separator

Home

Forum

What's New

Submit a Tab

FAQ

Links

Contact Us

Link to Us

MuSpy.com

MetalTabs.com logo

Bands

0-9

A

B

C

D

E

F

G

H

I

J

K

L

M

N

O

P

Q

R

S

T

U

V

W

X

Y

Z

Search

What

Where
 

Krisiun - "Serpents Specters (instrumental)" Guitar Tab

Plain Text Version
More Krisiun Tabs

Hits: 5430
Rated: 4.83 out of 5 (6 votes)
Updated: 2001-07-29 09:58:02

 

Important note
We did our best to reach Krisiun and ask for their permission to publish this tab. Unfortunately they did not respond to our requests or we could not find a way to contact them. This tab is available online until Krisiun tells us to take it down.


#----------------------------------PLEASE NOTE---------------------------------#
#This file is the author's own work and represents their interpretation of the #
#song. You may only use this file for private study, scholarship, or research. #
#Unless specified otherwise, this is NOT an official tab from the band members.#
#------------------------------------------------------------------------------#

  Visit MetalTabs.com for more metal tablature
  
                      KRISIUN - SERPENTS SPECTORS
                      From the Album  AGELESS VENOMOUS
                      Copyright 2001 (Century Media Records)
                      Version 1.0 - July 2001

Transcribed by: Chris Ninman
For Questions, Comments, Newest Version, or Corrections contact
       Chris Ninman at:       snowballingblood@hotmail.com

 ..  - palm mute          /  - slide up to
 \  - slide down to      ~  - vibrato
 h  - hammer on          b  - bend
 p  - pull off            Suffixes for bend
                          ph - pinch harmonic
                           f - full bend    h - half bend
 *  - see comment           r - release      t - tap bend
 X  - percussion mute       ~ - vibrato bend
 @  - slight palm mute     () - ghost note, sustained note

Tuning B  (B,E,A,D,F#,B)

Intro
|--------------------------------------------------------------------|
|--------------------------------------------------------------------|
|--------------------------------------------------------------------|
|-2--------------------------------3---------------------------------|
|-2--------------------------------3---------------------------------|
|-0--------------------------------1---------------------------------|
|
|--------------------------------------------------------------------|
|--------------------------------------------------------------------|
|-------------------------------16-16hb--------16-16~---------\14----|
|-14~------~----------~----------------------------------------------|
|--------------------------------------------------------------------|
|--------------------------------------------------------------------|

Intro cont.
|--------------------------------------------------------------------|
|--------------------------------------------------------------------|
|--------------------------------------------------------------------|
|-2--------------------------------3---------------------------------|
|-2--------------------------------3---------------------------------|
|-0--------------------------------1---------------------------------|
|
|----------------------------------------------------------------16--|
|--------------------------------------------------------------17----|
|-14-14~--13-13~----------10--9h10-10fb---9h10-9~------------18------|
|--------------------------------------------------------------------|
|--------------------------------------------------------------------|
|--------------------------------------------------------------------|

Intro cont.
|--------------------------------------------------------------------|
|--------------------------------------------------------------------|
|--------------------------------------------------------------------|
|-9--------------------------------6---------------------------------|
|-9--------------------------------6---------------------------------|
|-7--------------------------------4---------------------------------|
|
|-16~-----16-16--\--------16-17-1617--------16-16-16~-----\---/20----|
|--------------------------------------------------------------------|
|--------------------------------------------------------------------|
|--------------------------------------------------------------------|
|--------------------------------------------------------------------|
|--------------------------------------------------------------------|

Intro cont.
|--------------------------------------------------------------------|
|--------------------------------------------------------------------|
|--------------------------------------------------------------------|
|-9--------------------------------6---------------------------------|
|-9--------------------------------6---------------------------------|
|-7--------------------------------4---------------------------------|
|    *do not release bend
|-22fb--22fb------------\----/16----19--20-20-20-19-19-19\161616~----|
|--------------------------------------------------------------------|
|--------------------------------------------------------------------|
|--------------------------------------------------------------------|
|--------------------------------------------------------------------|
|--------------------------------------------------------------------|

Intro cont.
|--------------------------------------------------------------------|
|--------------------------------------------------------------------|
|--------------------------------------------------------------------|
|-3--------------------------------2---------------------------------|
|-3--------------------------------2---------------------------------|
|-1--------------------------------0---------------------------------|
|
|-191919---16p1516p15------------------------------------------------|
|--------------------17p1617-------16hb----16-16-16~----13-13-13/12--|
|-----------------------------1716-----------------------------------|
|--------------------------------------------------------------------|
|--------------------------------------------------------------------|
|--------------------------------------------------------------------|

Intro cont.
|--------------------------------------------------------------------|
|--------------------------------------------------------------------|
|--------------------------------------------------------------------|
|------------------2--------------------------------2----------------|
|------------------2--------------------------------2----------------|
|------------------0--------------------------------0----------------|
|
|--------------------------------------------------------------------|
|-12~----9-10-/10-999~---------------9h10----------------------------|
|-------------------------------10-9-----/10~-999~-------------------|
|---------------------------------------------------/12--10-9h10p9~--|
|--------------------------------------------------------------------|
|--------------------------------------------------------------------|

Intro cont.
|--------------------------------------------------------------------|
|--------------------------------------------------------------------|
|--------------------------------------------------------------------|
|------------------2--------------------------------2----------------|
|------------------2--------------------------------2----------------|
|------------------0--------------------------------0-rest-----------|
|
|--------------------------------------------------------------------|
|--------------------------------------------------------------------|
|--------------------------------------------------------------------|
|(9)hb--r--7h9--7\6~-------------------------------------------------|
|-------------------------------8---------7---hb--r--hb-r-hb-r-hb-r--|
|--------------------------------------------------------------------|

Riff 1 (4 times)
|--------------------------------------------------|
|--------------------------------------------------|
|--------------------------------------------------|
|-----6-7-9-10-13-10---------------6-7-9-6---------|
|-7-8----------------12-11-8-7-7-8---------8-7-----|
|----------------------------------------------9-8-|

Fill 1
|-----|
|-----|
|-9---|
|-9---|
|-7---|
|-----|

Riff 2 (2 times)
|-----------------------------------------------|
|-----------------------------------------------|
|-----------------------------------------------|
|-----4-5-7-8-11-8--------------4-5-7-4---------|
|-5-6--------------10-9-6-5-5-6---------6-5-----|
|-------------------------------------------7-6-|

Fill 2
|-----|
|-----|
|-7---|
|-7---|
|-5---|
|-----|

Repeat Riff 1 (2 times)

Fill 3
|-----|
|-----|
|-----|
|-----|
|-7\--|
|-----|

Riff 3 (2 times)
|------------------------------------------------------------|
|------------------------------------------------------------|
|------------------------------------------------------------|
|-------9-10-13---------9-10-13---------9-10-14---13-10-13---|
|-11-12-----------11-12-----------11-12----------------------|
|------------------------------------------------------------|
|
|------------------------------------------------------------|
|------------------------------------------------------------|
|------------------------------------------------------------|
|------------------------------------------------------------|
|-------2--3--6---------2--3--6---------2--3--7---6--3--6----|
|--4--5------------4--5------------4--5----------------------|

Riff 3 cont.
|-----------------------------------------------------------|
|-----------------------------------------------------------|
|-----------------------------------------------------------|
|-------9-10-13---------9-10-13---------9-10-13---10-7-10---|
|-11-12-----------11-12-----------11-12---------------------|
|-----------------------------------------------------------|
|
|-----------------------------------------------------------|
|-----------------------------------------------------------|
|-----------------------------------------------------------|
|-----------------------------------------------------------|
|-------2--3--6---------2--3--6---------2--3--6---3--0--3---|
|--4--5------------4--5------------4--5---------------------|

Riff 4 (2 times)
|------------------------------------------------------------|
|------------------------------------------------------------|
|-------9-10-13---------9-10-13---------9-10-14---13-10-13---|
|--9-10------------9-10------------9-10----------------------|
|------------------------------------------------------------|
|------------------------------------------------------------|
|
|------------------------------------------------------------|
|------------------------------------------------------------|
|------------------------------------------------------------|
|-------2--3--6---------2--3--6---------2--3--7---6--3--6----|
|--2--3------------2--3------------2--3----------------------|
|------------------------------------------------------------|

Riff 4 cont.
|-----------------------------------------------------------|
|-----------------------------------------------------------|
|-------9-10-13---------9-10-13---------9-10-13---10-7-10---|
|--9-10------------9-10------------9-10---------------------|
|-----------------------------------------------------------|
|-----------------------------------------------------------|
|
|-----------------------------------------------------------|
|-----------------------------------------------------------|
|-----------------------------------------------------------|
|-------2--3--6---------2--3--6---------2--3--7---3--0--3---|
|--2--3------------2--3------------2--3---------------------|
|-----------------------------------------------------------|

Repeat Riff 1 (2 times)
Repeat Fill 1
Repeat Riff 2 (2 times)
Repeat Fill 2
Repeat Riff 1 (2 times)
Repeat Fill 3

Riff 3a (2 times)
|-----------------------------------------------------------|
|-----------------------------------------------------------|
|-----------------------------------------------------------|
|-------9-10-13---------9-10-13---------9-10-13---10-7-10---|
|-11-12-----------11-12-----------11-12---------------------|
|-----------------------------------------------------------|

Riff 3a
|-----------------------------------------------------------|
|-----------------------------------------------------------|
|-----------------------------------------------------------|
|-------9-10-13---------9-10-13---------9-10-13---10-7-10---|
|-11-12-----------11-12-----------11-12---------------------|
|-----------------------------------------------------------|

Fill 4
|----|
|----|
|----|
|-10-|
|----|
|----|

Riff 5 (4 times)
|------------------------------------|
|------------------------------------|
|------------------------------------|
|-14-13-------13-10-------10-9-------|
|-------15-14-------14-11------11-10-|
|------------------------------------|

Riff 6 (1 time)
|--------------------------------------------------------------|
|--------------------------------------------------------------|
|--------------------------------------------------------------|
|-14-13-------13-10-------10-9-------10-7------7-6-----6-3-----|
|-------15-14-------14-11------11-10------11-8-----8-7-----7-4-|
|--------------------------------------------------------------|

Riff 7 (3 times)
|----------------------------------------------------------------|
|----------------------------------------------------------------|
|----------------------------------------------------------------|
|-9-------------9-------------14-13-------13-10-------10-9-------|
|-7-------------7-------------------15-14-------14-11------11-10-|
|---0-0-0-0-0-0---0-0-0-0-0-0------------------------------------|

Riff 7 cont.
|---------------------------|
|---------------------------|
|---------------------------|
|-10-7------7-6-----6-3-----|
|------11-8-----8-7-----7-4-|
|---------------------------|

Riff 8a (1 time)
|-------------------------------------------------------------|
|-------------------------------------------------------------|
|-------------------------------------------------------------|
|-9----------------------------------------9------------------|
|-7-----------------7"---8"---11"-7"-8"-6"-7------------------|
|----0000--0000--000---------------------------7"---8"---4"---|
|    ....  ....  ...
|-------------------------------------------------------------|
|-------------------------------------------------------------|
|-------------------------------------------------------------|
|-9--------------------------------------------9"--10"---6"---|
|-7-----------------7"---8"---11"-7"-8"-6"-7"-----------------|
|---0-0-0--0000--000---------------------------7"---8"---4"---|
    . . .  ....  ...

Riff 8a cont.
|------------------------------------------------------|
|------------------------------------------------------|
|------------------------------------------------------|
|----------------------------------------9--8(tr)9-----|
|-------------------7"---8"---11"-8"-11"---------------|
|-0--0000--0000--000-----------------------------------|
| .  ....  ....  ...
|------------------------------------------------------|
|------------------------------------------------------|
|---------------------------------------11-10(tr)11----|
|-------------------9"---10---13--10-13----------------|
|------------------------------------------------------|
|-0--0000--0000--000-----------------------------------|
  .  ....  ....  ...

Riff 8 (2 times)
|-------------------------------------------------------------|
|-------------------------------------------------------------|
|-------------------------------------------------------------|
|------------------------------------------9------------------|
|-------------------7"---8"---11"-7"-8"-6"-7------------------|
|-0--0000--0000--000---------------------------7"---8"---4"---|
| .  ....  ....  ...
|-------------------------------------------------------------|
|-------------------------------------------------------------|
|-------------------------------------------------------------|
|----------------------------------------------9"--10"---6"---|
|-------------------7"---8"---11"-7"-8"-6"-7"-----------------|
|-0--0000--0000--000---------------------------7"---8"---4"---|
  .  ....  ....  ...

Riff 8 cont.
|------------------------------------------------------|
|------------------------------------------------------|
|------------------------------------------------------|
|----------------------------------------9--8(tr)9-----|
|-------------------7"---8"---11"-8"-11"---------------|
|-0--0000--0000--000-----------------------------------|
| .  ....  ....  ...
|------------------------------------------------------|
|------------------------------------------------------|
|---------------------------------------11-10(tr)11----|
|-------------------9"---10---13--10-13----------------|
|------------------------------------------------------|
|-0--0000--0000--000-----------------------------------|
  .  ....  ....  ...

Riff 9 (2 times)
|---------------------------------------------|
|---------------------------------------------|
|---------------------------------------------|
|---------------------------------------------|
|-----------11-10-----------------14-13-------|
|-0---10-13-------13-10-0---13-16-------16-13-|
|
|---------------------------------------------|
|---------------------------------------------|
|---------------------------------------------|
|---------------------------------------------|
|------------8--7-----------------11-10-------|
|-0----7--10------10-7--0---10-13-------13-10-|

Riff 9a (4 times)
|---------------------------------------------|
|---------------------------------------------|
|---------------------------------------------|
|---------------------------------------------|
|-----------11-10-----------------14-13-------|
|-0"--10-13-------13-10-0"--13-16-------16-13-|
|
|---------------------------------------------|
|---------------------------------------------|
|---------------------------------------------|
|---------------------------------------------|
|------------8--7-----------------11-10-------|
|-0"---7--10------10-7--0"--10-13-------13-10-|

Riff 10 (2 times)
|-------------------------------------------------------------|
|-------------------------------------------------------------|
|-------------------------------------------------------------|
|------------------------------------------9------------------|
|-------------------7"---8"---11"-7"-8"-6"-7------------------|
|-0--0000--0000--000---------------------------7"---8"---4"---|
| .  ....  ....  ...
|-------------------------------------------------------------|
|-------------------------------------------------------------|
|-------------------------------------------------------------|
|----------------------------------------------9"--10"---6"---|
|-------------------7"---8"---11"-7"-8"-6"-7"-----------------|
|-0--0000--0000--000---------------------------7"---8"---4"---|
  .  ....  ....  ...

Riff 10 cont.
|------------------------------------------------------|
|------------------------------------------------------|
|------------------------------------------------------|
|----------------------------------------9--8(tr)9-----|
|-------------------7"---8"---11"-8"-11"---------------|
|-0--0000--0000--000-----------------------------------|
| .  ....  ....  ...
|------------------------------------------------------|
|------------------------------------------------------|
|------------------------------------------------------|
|---------------------------------------12-11(tr)12----|
|-------------------10"--11---14--11-14----------------|
|-0--0000--0000--000-----------------------------------|
  .  ....  ....  ...

Repeat Riff 9 (2 times)
Repeat Riff 9a (4 times)

Fill 5
|----|
|----|
|----|
|----|
|-2--|
|-0--|

Riff 11 (1 time)
|----------------------------------------------------------------|
|----------------------------------------------------------------|
|----------------------------------------------------------------|
|-t14p11p8-t14p11p8-------------------t14p11p8-t14p11p8-t15p12p9-|
|-------------------t13p10p7-t13p10p7----------------------------|
|----------------------------------------------------------------|
|
|----------------------------------------------------------------|
|----------------------------------------------------------------|
|-t14p11p8-t14p11p8-------------------t14p11p8-t14p11p8-t15p12p9-|
|-------------------t13p10p7-t13p10p7----------------------------|
|----------------------------------------------------------------|
|----------------------------------------------------------------|

Riff 11 cont.
|----------------------------------------------------------------|
|----------------------------------------------------------------|
|----------------------------------------------------------------|
|-t15p12p9-------------------t15p12p9-t15p12p9-t14p11p8-t14p11p8-|
|----------t14p11p8-t14p11p8-------------------------------------|
|----------------------------------------------------------------|
|
|----------------------------------------------------------------|
|----------------------------------------------------------------|
|-t15p12p9-------------------t15p12p9-t15p12p9-t14p11p8-t14p11p8-|
|----------t14p11p8-t14p11p8-------------------------------------|
|----------------------------------------------------------------|
|----------------------------------------------------------------|

Riff 11 cont.
|----------------------------------------------------------------|
|----------------------------------------------------------------|
|----------------------------------------------------------------|
|-------------------t14p11p8-t14p11p8-t15p12p9-t15p12p9----------|
|-t13p10p7-t13p10p7-------------------------------------t14p11p8-|
|----------------------------------------------------------------|
|
|----------------------------------------------------------------|
|----------------------------------------------------------------|
|-------------------t14p11p8-t14p11p8-t15p12p9-t15p12p9----------|
|-t13p10p7-t13p10p7-------------------------------------t14p11p8-|
|----------------------------------------------------------------|
|----------------------------------------------------------------|

Riff 11 cont.
|----------------------------------------------------------------------|
|----------------------------------------------------------------------|
|----------------------------------------------------------------------|
|----------t19p16p13-t19p16p13---------------------t19p16p13-t19p16p13-|
|-t14p11p8---------------------t18p15p12-t18p15p12---------------------|
|----------------------------------------------------------------------|
|
|----------------------------------------------------------------------|
|----------------------------------------------------------------------|
|----------t19p16p13-t19p16p13---------------------t19p16p13-t19p16p13-|
|-t14p11p8---------------------t18p15p12-t18p15p12---------------------|
|----------------------------------------------------------------------|
|----------------------------------------------------------------------|

Riff 11 cont.
|-----------------------------------------------------------------------|
|-----------------------------------------------------------------------|
|-----------------------------------------------------------------------|
|-t20p17p14-t20p17p14---------------------t20p17p14-t20p17p14-t19p16p13-|
|---------------------t19p16p13-t19p16p13-------------------------------|
|-----------------------------------------------------------------------|
|
|-----------------------------------------------------------------------|
|-----------------------------------------------------------------------|
|-t20p17p14-t20p17p14---------------------t20p17p14-t20p17p14-t19p16p13-|
|---------------------t19p16p13-t19p16p13-------------------------------|
|-----------------------------------------------------------------------|
|-----------------------------------------------------------------------|

Riff 11 cont.
|-----------------------------------------------------------------------|
|-----------------------------------------------------------------------|
|-----------------------------------------------------------------------|
|-t19p16p13---------------------t19p16p13-t19p16p13-t20p17p14-t20p17p14-|
|-----------t18p15p12-t18p15p12-----------------------------------------|
|-----------------------------------------------------------------------|
|
|-----------------------------------------------------------------------|
|-----------------------------------------------------------------------|
|-t19p16p13---------------------t19p16p13-t19p16p13-t20p17p14-t20p17p14-|
|-----------t18p15p12-t18p15p12-----------------------------------------|
|-----------------------------------------------------------------------|
|-----------------------------------------------------------------------|

Fill 6
|------|
|------|
|------|
|-9----|
|-7----|
|-0----|

Riff 12 (1 time)
|----------------------------------------------------------------|
|----------------------------------------------------------------|
|----------------------------------------------------------------|
|-t14p11p8-t14p11p8-------------------t14p11p8-t14p11p8-t15p12p9-|
|-------------------t13p10p7-t13p10p7----------------------------|
|----------------------------------------------------------------|
|
|----------------------------------------------------------------|
|----------------------------------------------------------------|
|-t12p9p6--t12p9p6--------------------t12p9p6--t12p9p6--t13p10p7-|
|-------------------t11p8p5--t11p8p5-----------------------------|
|----------------------------------------------------------------|
|----------------------------------------------------------------|

Riff 12 cont.
|----------------------------------------------------------------|
|----------------------------------------------------------------|
|----------------------------------------------------------------|
|-t15p12p9-------------------t15p12p9-t15p12p9-t14p11p8-t14p11p8-|
|----------t14p11p8-t14p11p8-------------------------------------|
|----------------------------------------------------------------|
|
|----------------------------------------------------------------|
|----------------------------------------------------------------|
|-t13p10p7-------------------t13p10p7-t13p10p7-t12p9p6--t12p9p6--|
|----------t12p9p6--t12p9p6--------------------------------------|
|----------------------------------------------------------------|
|----------------------------------------------------------------|

Riff 12 cont.
|----------------------------------------------------------------|
|----------------------------------------------------------------|
|----------------------------------------------------------------|
|-------------------t14p11p8-t14p11p8-t15p12p9-t15p12p9----------|
|-t13p10p7-t13p10p7-------------------------------------t14p11p8-|
|----------------------------------------------------------------|
|
|----------------------------------------------------------------|
|----------------------------------------------------------------|
|-------------------t12p9p6--t12p9p6--t13p10p7-t13p10p7----------|
|-t11p8p5--t11p8p5--------------------------------------t12p9p6--|
|----------------------------------------------------------------|
|----------------------------------------------------------------|

Riff 12 cont.
|----------------------------------------------------------------------|
|----------------------------------------------------------------------|
|----------------------------------------------------------------------|
|----------t19p16p13-t19p16p13---------------------t19p16p13-t19p16p13-|
|-t14p11p8---------------------t18p15p12-t18p15p12---------------------|
|----------------------------------------------------------------------|
|
|----------------------------------------------------------------------|
|----------------------------------------------------------------------|
|----------t17p14p11-t17p14p11---------------------t17p14p11-t17p14p11-|
|-t12p9p6----------------------t16p13p10-t16p13p10---------------------|
|----------------------------------------------------------------------|
|----------------------------------------------------------------------|

Riff 12 cont.
|-----------------------------------------------------------------------|
|-----------------------------------------------------------------------|
|-----------------------------------------------------------------------|
|-t20p17p14-t20p17p14---------------------t20p17p14-t20p17p14-t19p16p13-|
|---------------------t19p16p13-t19p16p13-------------------------------|
|-----------------------------------------------------------------------|
|
|-----------------------------------------------------------------------|
|-----------------------------------------------------------------------|
|-t18p15p12-t18p15p12---------------------t18p15p12-t18p15p12-t17p14p11-|
|---------------------t17p14p11-t17p14p11-------------------------------|
|-----------------------------------------------------------------------|
|-----------------------------------------------------------------------|

Riff 12 cont.
|-----------------------------------------------------------------------|
|-----------------------------------------------------------------------|
|-----------------------------------------------------------------------|
|-t19p16p13---------------------t19p16p13-t19p16p13-t20p17p14-t20p17p14-|
|-----------t18p15p12-t18p15p12-----------------------------------------|
|-----------------------------------------------------------------------|
|
|-----------------------------------------------------------------------|
|-----------------------------------------------------------------------|
|-t17p14p11---------------------t17p14p11-t17p14p11-t18p15p12-t18p15p12-|
|-----------t16p13p10-t16p13p10-----------------------------------------|
|-----------------------------------------------------------------------|
|-----------------------------------------------------------------------|

Repeat Fill 6
Repeat Riff 12 (1 time)
Repeat Fill 6
Repeat Riff 12 (1 time)

Fill 7
|---------------------------|
|---------------------------|
|---------------------------|
|-9------------9------------|
|-7------------7------------|
|-0------------0------------|

Riff 13 (1 time)
|---------------------------------------------------------------------|
|---------------------------------------------------------------------|
|---------------------------------------------------------------------|
|---------------------------------------------------------------------|
|---------------------------------------------------------------------|
|-0-00000-00000-00000-0-0-0-00000-00000-00000-0-0-0-00000-00000-00000-|
| . ..... ..... ..... . . . ..... ..... ..... . . . ..... ..... .....
|---------------------------------------------------------------------|
|---------------------------------------------------------------------|
|-17----------------------16----------------------10------------------|
|---------------------------------------------------------------------|
|-15----------------------14-----------------------8------------------|
|---------------------------------------------------------------------|

Riff 13 cont.
|-----------------------------|
|-----------------------------|
|-----------------------------|
|-----------------------------|
|-----------------------------|
|-0-0-0-00000-00000-00000-0-0-|
| . . . ..... ..... ..... . .
|-----------------------------|
|-----------------------------|
|-----9-----------------------|
|-----------------------------|
|-----7-----------------------|
|-----------------------------|

Fill 8
|-----------|
|-----------|
|-9---------|
|-9---------|
|-7---------|
|-0---------|

Riff 14 (1 time) (under solo
|----------------------------------------------------------------|
|----------------------------------------------------------------|
|----------------------------------------------------------------|
|-14"-13"-14"-13"-11"-12"-11"-12"-14"-13"-14"-13"-9"-10"-9"-10"--|
|----------------------------------------------------------------|
|-12"-11"-12"-11"--9"-10"--9"-10"-12"-11"-12"-11"-7"--8"-7"--8"--|

Riff 15 (4 times)
|------------------------------------|
|------------------------------------|
|------------------------------------|
|---------------------------8-7------|
|-2--------------7"----8-10-----8-7--|
|-0----------------------------------|
|
|------------------------------------|
|------------------------------------|
|--------------------------10-9------|
|---------------9"---10-12------10-9-|
|-2----------------------------------|
|-0----------------------------------|

Riff 16 (4 times)
|------------------------------------|
|------------------------------------|
|------------------------------------|
|---------------------------8-7------|
|----------------7"----8-10-----8-7--|
|-0"---------------------------------|
|
|------------------------------------|
|------------------------------------|
|--------------------------10-9------|
|---------------9"---10-12------10-9-|
|------------------------------------|
|-0"---------------------------------|

Riff 17 (7 times)
|--------------------------------------------------------------------|
|--------------------------------------------------------------------|
|------------10-9-----------------10-9-----------------10-9"---10-12-|
|-9"---10-12------10-9-9"---10-12------10-9-9"---10-12---------------|
|--------------------------------------------------------------------|
|--------------------------------------------------------------------|
|
|--------------------------------------------------------------------|
|--------------------------------------------------------------------|
|--------------------------------------------------------------------|
|--------------------------------------------------------------------|
|-------------8-7------------------8-7------------------8-7"---8-10--|
|-7"----8-10-------8-7-7"----8-10-------8-7-7"----8-10---------------|
|
|--------------------------------------------------------------------|
|-----------18-17----------------18-17----------------18-17"---18-20-|
|-16"--17-19-----17-16-16"--17-19-----17-16-16"--17-19---------------|
|--------------------------------------------------------------------|
|--------------------------------------------------------------------|
|--------------------------------------------------------------------|

Riff 17 cont.
|-----------|
|--9-8------|
|------10-9-|
|-----------|
|-----------|
|-----------|
|
|-----------|
|-----------|
|-----------|
|--6-5------|
|------8-7--|
|-----------|
|
|-16-15-----|
|------18-17|
|-----------|
|-----------|
|-----------|
|-----------|

Ending
|------|
|------|
|------|
|------|
|-2----|
|-0----|
|
|------|
|------|
|-16---|
|------|
|------|
|------|

  Visit MetalTabs.com for more metal tablature

bottom separator

Contact Us | Privacy Policy | Disclaimer | Legal Notice
Copyright © 2001-2014 MetalTabs.com. All Rights Reserved.