#----------------------------------PLEASE NOTE---------------------------------#
#This file is the author's own work and represents their interpretation of the #
#song. You may only use this file for private study, scholarship, or research. #
#Unless specified otherwise, this is NOT an official tab from the band members.#
#------------------------------------------------------------------------------#

  Visit MetalTabs.com for more metal tablature
  
                    KRISIUN  RITES OF DEFAMATION
                    From the Album APOCALYPTIC REVELATIONS
                    Copyright 1998 (Gun Records)
                    Version 1.0 - June 2001

Transcribed by: Chris Ninman
For Questions, Comments, Newest Version, or Corrections contact
       Chris Ninman at:       snowballingblood@hotmail.com

.  - palm mute                    /  - slide up to
\  - slide down to                ~  - vibrato
h  - hammer on                    b  - bend
p  - pull off                          Suffixes for bend
ph - pinch harmonic                     f - full bend    h - half bend
*  - see comment                        r - release      t - tap bend
X  - percussion mute                    ~ - vibrato bend
@  - slight palm mute             () - ghost note, sustained note
"  - tremolo pick until next note

Like all songs from Apocalyptic Revelations or Conquerors of Armageddon,
this song is divided into the right and left channel. When there is more
than one guitar in a riff, the top is the left channel and the bottom is
the right channel. If only one guitar part is shown, both channels are
playing the same thing.  In riffs 11 and 12, the bass note is at times
played only once so -7-7- is -7--- at times.

Tune to D (D,G,C,F,A,D)

Fill 1
|-------|
|-------|
|-------|
|-------|
|-2-2---|
|-0-0---|

Riff 1 (12 times)
|-----------------------------------------|
|-----------------------------------------|
|-----------------------------------------|
|-----------------------------------------|
|-------------5-4-8-7-----7-6-----6-5-----|
|-1-0-4-3-7-6---------9-8-----8-7-----7-6-|

Fill 2
|-----|
|-----|
|-----|
|-----|
|-----|
|-12\-|

Riff 2 (1 time)
|-------------------------------------------------|
|-------------------------------------------------|
|-------------------------------------------------|
|-------------------------------------------------|
|-------------------------------------------------|
|-12\0"-13"12-0"-12"11-0"-13"12-0"-14"13-0"-15"14-|
|
|-------------------------------------------------|
|-------------------------------------------------|
|-------------------------------------------------|
|-------------------------------------------------|
|----2--------------------------------------------|
|----0--------------------------------------------|

Riff 3 (18 times)
|----------------------------------------------|
|----------------------------------------------|
|----------------------------------------------|
|----------------------------------------------|
|----------------------------------------------|
|-0"-13"12-0"-12"11-0"-13"12-0"-14"13-0"-15"14-|

Riff 4 (10 times)
|-----------------------------|
|-----------------------------|
|-----------------------------|
|-----------------------------|
|-----------------------------|
|-6"5-7"6-8"7-6"5-7"6-8"7-9"8-|

Riff 5 (1 time)
|-------------------------------|
|-------------------------------|
|-------------------------------|
|-------------------------------|
|----------5-4-8-7----8p7---8p7-|
|-1-0-7-6----------0"----0"-----|
|
|-------------------------------|
|-------------------------------|
|-------------------------------|
|-------------------------------|
|----------5-4-8-7--------------|
|-1-0-7-6----------0"-1p00"-1p0-|

Riff 6 (3 times)
|-------------------------------|
|-------------------------------|
|-------------------------------|
|-------------------------------|
|----------5-4-8-7----8p7---8p7-|
|-1-0-7-6----------0"----0"-----|

Riff 7 (18 times)
|-------------------------------|
|-------------------------------|
|-------------------------------|
|-------------------------------|
|----------5-4-8-7----8p7---8p7-|
|-1-0-7-6----------0"----0"-----|
|
|-------------------------------|
|-------------------------------|
|-------------------------------|
|---------------------109---109-|
|----------5-4-8-7-----87----87-|
|-1-0-7-6----------0"----0"-----|

Riff 8 (1 time)
|-----------------------------|
|-----------------------------|
|-----------------------------|
|-----------------------------|
|-----------------------------|
|-6"5-7"6-8"7-6"5-7"6-8"7-9"8-|
|
|-----------------------------|
|-----------------------------|
|-----------------------------|
|(9)--------------------------|
|(7)--------------------------|
|-----7"6-8"7-6"5-7"6-8"7-9"8-|
  *held from Riff 7

Repeat Riff 4 (3 times)
Repeat Riff 3 (8 times)

Riff 9 (2 times)
|-------------------------------|
|-------------------------------|
|-------------------------------|
|-12"---13"---12"---11"---10"---|
|-------------------------------|
|-10"---11"---10"----9"----8"---|

Repeat Riff 3 (4 times)

Riff 10 (1 time)
|------------------------------------------|
|------------------------------------------|
|------------------------------------------|
|------------------------------------------|
|-----9-5-8-4-----9-5-8-4-----9-5-8-4-7-3--|
|-7-7---------7-7---------7-7--------------|
|
|------------------------------------------|
|------------------------------------------|
|------------------------------------------|
|------------------------------------------|
|------------------------------------------|
|------------------------------------------|

Riff 11 (2 times)
|------------------------------------------|
|------------------------------------------|
|------------------------------------------|
|------------------------------------------|
|-----9-5-8-4-----9-5-8-4-----9-5-8-4-7-3--|
|-7-7---------7-7---------7-7--------------|
|
|------------------------------------------|
|------------------------------------------|
|----11-7-10-6---11-7-10-6---11-7-10-6-9-5-|
|-9-9---------9-9---------9-9--------------|
|------------------------------------------|
|------------------------------------------|

Riff 12 (2 times)
|------------------------------------------------------|
|------------------------------------------------------|
|------------------------------------------------------|
|------------------------------------------------------|
|-------12-8-11-7-------12-8-11-7-------12-8-11-7-10-6-|
|-10-10-----------10-10-----------10-10----------------|
|
|------------------------------------------------------|
|------------------------------------------------------|
|------14-10-13-9------14-10-13-9------14-10-13-9-12-8-|
|-12-12-----------12-12-----------12-12----------------|
|------------------------------------------------------|
|------------------------------------------------------|

Repeat Riff 11 (2 times)

Riff 13 (1 time)
|-----------------------------|
|-----------------------------|
|-----------------------------|
|-----------------------------|
|-----------------------------|
|-7"-8--11"-10--7"-8--15"-14--|
|
|-----------------------------|
|-----------------------------|
|-4--rest---------------------|
|-----------------------------|
|-----------------------------|
|-----------------------------|

Riff 14 (9 times)
|-----------------------------|
|-----------------------------|
|-----------------------------|
|-----------------------------|
|-----------------------------|
|-7"-8--11"-10--7"-8--13"-12--|
|
|-----------------------------|
|-----------------------------|
|-----------------------------|
|-----------------------------|
|-9"-10-13"-12--9"-10-15"-14--|
|-----------------------------|

Riff 15 (5 times)
|-----------------------------------------|
|-----------------------------------------|
|-----------------------------------------|
|-----------------------------------------|
|-------------5-4-8-7-----7-6-----6-5-----|
|-1-0-4-3-7-6---------9-8-----8-7-----7-6-|
|
|-----------------------------------------|
|-----------------------------------------|
|-----------------------------------------|
|------------7-5-10-9-----9-8-----8-7-----|
|-----6-5-9-8--------11-10---10-9-----9-8-|
|-1-0-------------------------------------|

Ending
|-----|
|-----|
|-----|
|-----|
|-2---|
|-0---|

  Visit MetalTabs.com for more metal tablature