top separator

Home

Forum

What's New

Submit a Tab

FAQ

Links

Contact Us

Link to Us

MetalTabs.com logo

Bands

0-9

A

B

C

D

E

F

G

H

I

J

K

L

M

N

O

P

Q

R

S

T

U

V

W

X

Y

Z

Search

What

Where
 

Krisiun - "March of the Black Hordes" Guitar Tab

Plain Text Version
More Krisiun Tabs

Hits: 4455
Rated: 4.67 out of 5 (3 votes)
Updated: 2001-07-25 14:09:04

 

Important note
We did our best to reach Krisiun and ask for their permission to publish this tab. Unfortunately they did not respond to our requests or we could not find a way to contact them. This tab is available online until Krisiun tells us to take it down.


#----------------------------------PLEASE NOTE---------------------------------#
#This file is the author's own work and represents their interpretation of the #
#song. You may only use this file for private study, scholarship, or research. #
#Unless specified otherwise, this is NOT an official tab from the band members.#
#------------------------------------------------------------------------------#

  Visit MetalTabs.com for more metal tablature
  
                     KRISIUN - MARCH OF THE BLACK HORDES
                    From the Album APOCALYPTIC REVELATIONS
                         Copyright 1998 (Gun Records)
                          Version 1.0 - April 2001
Transcribed by: Chris Ninman
For Questions, Comments, Newest Version, or Corrections contact
       Chris Ninman at:       snowballingblood@hotmail.com

.  - palm mute                    /  - slide up to
\  - slide down to                ~  - vibrato
h  - hammer on                    b  - bend
p  - pull off                          Suffixes for bend
ph - pinch harmonic                     f - full bend    h - half bend
*  - see comment                        r - release      t - tap bend
X  - percussion mute                    ~ - vibrato bend
@  - slight palm mute             () - ghost note, sustained note
"  - tremolo pick until next note

	This song is Moyses, Alex, and Max's war/battle song. The song is
played with a right and a left channel. The third guitar (not 100% sure it
is actually a guitar) is played on both right and left channels. It comes
in for the last seven times through the basic pattern of the song. It comes
in after the first time through the basic pattern, after the middle sped up
part. I tried to arrange the order in which the riffs are played so you can
best see how guitars fit together. Hope it makes sense for you. March off to
fight the war for metal.

Tune to D (D,G,C,F,A,D)

Riff 1
|----------------------------------------------------------------|
|----------------------------------------------------------------|
|----------------------------------------------------------------|
|----------------------------------------------------------------|
|--------------------------------------------------------------2-|
|-0"--5"--7"--0"--5"--7"-8"--0"--8"--7"--0"--5"-7"-8"-1"---3"--0-|

Riff 2
|------------------------------------------------------------------|
|------------------------------------------------------------------|
|------------------------------------------------------------------|
|----12"-14"----12"-14"15"----17"-14"----12"-14"15"----15"-14"10"--|
|----12"-14"----12"-14"15"----17"-14"----12"-14"15"----15"-14"10"--|
|-0"-10"-12"-0"-10"-12"13"-0"-15"-12"-0"-10"-12"13"-0"-13"-12"-8"--|

Riff 3
|------------------------------------------------------------------|
|------------------------------------------------------------------|
|------------------------------------------------------------------|
|------------------------------------------------------------------|
|----12"-14"----12"-14"15"----17"-14"----12"-14"15"----15"-14"10"--|
|-0"---------0"------------0"---------0"------------0"-------------|

Riff 4
|------------------------------------------------------------------|
|------------------------------------------------------------------|
|------------------------------------------------------------------|
|------------------------------------------------------------------|
|----12"-14"----12"-14"15"----17"-14"----12"-14"15"----15"-14"10"--|
|-0"-10"-12"-0"-10"-12"13"-0"-15"-12"-0"-10"-12"13"-0"-13"-12"-8"--|

Riff 5
|------------------------------------------------------------------|
|------------------------------------------------------------------|
|------------------------------------------------------------------|
|----14--16-----14--16-17-----19--16-----14--16-17-----17--16-12---|
|----12--14-----12--14-15-----17--14-----12--14-15-----15--14-10---|
|-0"---------0"------------0"---------0"------------0"-------------|

Riff 6
|------------------------------------------------------------------|
|------------------------------------------------------------------|
|------------------------------------------------------------------|
|------------------------------------------------------------------|
|----17"-19"----17"-19"20"----22"-19"----17"-19"20"----20"-19"15"--|
|-0"---------0"------------0"---------0"------------0"-------------|


Riff 7a
|-------------------------------------------------------------------------|
|-------------------------------------------------------------------------|
|-------------------------------------------------------------------------|
|-------------------------------------------------------------------------|
|------8p7------7p6------6p5------5h7------8p7------7p6------6p5------5h7-|
|-0000-----0000-----0000-----0000-----0000-----0000-----0000-----0000-----|
|Riff 7b
|-------------------------------------------------------------------------|
|-------------------------------------------------------------------------|
|--*held from-Riff 1------------------------------------------------------|
|-------------------------------------------------------------------------|
|-(2)-----------------------------------------------------------------5h7-|
|-(0)---------------------------------------------------------------------|

Riff 7
|-------------------------------------|
|-------------------------------------|
|-------------------------------------|
|-------------------------------------|
|------8p7------7p6------6p5------5h7-|
|-0000-----0000-----0000-----0000-----|

Fill 1
|------|
|------|
|------|
|------|
|------|
|-19\--|

Riff 8
|-------------------------|
|-------------------------|
|-------------------------|
|-------------------------|
|-3"-2"-6"-5"-3"-2"-5"-4"-|
|-------------------------|

Riff 9
|-------------------------|
|-------------------------|
|-------------------------|
|-------------------------|
|-6"-5"-9"-8"-6"-5"-8"-7"-|
|-------------------------|

Riff 10
|-------------------------------|
|-------------------------------|
|-------------------------------|
|-------------------------------|
|-10"-9"-13"-12"-10"-9"-12"-11"-|
|-------------------------------|

Riff 11
|------------------------------------------------------|
|-15--17---15--17-18---20--17---15--17-18---18--17-13--|
|------------------------------------------------------|
|------------------------------------------------------|
|------------------------------------------------------|
|------------------------------------------------------|

Riff 12
|------------------------------------------------------|
|-10--12---10--12-13---15--12---10--12-13---13--12--8--|
|------------------------------------------------------|
|------------------------------------------------------|
|------------------------------------------------------|
|------------------------------------------------------|

Ending
|---------------|
|---------------|
|---------pick--|right/left
|---------slide-| guitars
|-12--14--------|
|-10--12--------|
|
|---------------|
|-15--17~-------|
|---------------|
|---------------|
|---------------|
|---------------|


Song Order

Left Guitar		Right Guitar	Third Guitar

Riff 1 (x4)		Riff 1 (x4)
Riff 2 (x4)		Riff 3 (x4)
Riff 4 (x4)		Riff 5 (x3)
			Riff 3 (x1)
Riff 2 (x2)		Riff 6 (x1)
			Riff 3 (x1)
Riff 1 (x2)		Riff 1 (x2)
Riff 7a (x1)	Riff 7b (x1)
Riff 7 (x10)	Riff 7 (x10)
Fill 1 (x1)		Fill 1 (x1)
Riff 8 (x4)		Riff 8 (x4)
Riff 9 (x4)		Riff 9 (x4)
Riff 8 (x4)		Riff 10 (x4)
Riff 2 (x8) 	Riff 4 (x3)
Riff 11 (x3)
			Riff 6 (x5)
						Riff 12 (x2)
						Riff 11 (x2)
Ending		Ending		Ending

  Visit MetalTabs.com for more metal tablature

bottom separator

Contact Us | Privacy Policy | Disclaimer | Legal Notice
Copyright © 2001-2014 MetalTabs.com. All Rights Reserved.