#----------------------------------PLEASE NOTE---------------------------------#
#This file is the author's own work and represents their interpretation of the #
#song. You may only use this file for private study, scholarship, or research. #
#Unless specified otherwise, this is NOT an official tab from the band members.#
#------------------------------------------------------------------------------#

  Visit MetalTabs.com for more metal tablature
  
                          KRISIUN - KINGS OF KILLING
                    From the Album APOCALYPTIC REVELATIONS
                         Copyright 1998 (Gun Records)
                          Version 1.0 - March 2001
Transcribed by: Chris Ninman
For Questions, Comments, Newest Version, or Corrections contact
       Chris Ninman at:       snowballingblood@hotmail.com

.  - palm mute                    /  - slide up to
\  - slide down to                ~  - vibrato
h  - hammer on                    b  - bend
p  - pull off                          Suffixes for bend
ph - pinch harmonic                     f - full bend    h - half bend
*  - see comment                        r - release      t - tap bend
X  - percussion mute                    ~ - vibrato bend
@  - slight palm mute             () - ghost note, sustained note
"  - tremolo pick until next note

Tune to D (D,G,C,F,A,D)

Intro (1 time)
|----------------------------------------|
|----------------------------------------|
|----------------ph----------------------|left
|-------3---------2---------1------------| gtr
|-2-2-2-----2-2-2-----2-2-2-----2-2-2-5--|
|-0-0-0-----0-0-0-----0-0-0-----0-0-0----|
  . . .     . . .     . . .     . . .

Riff 1a (1 time)
|----------------------------------------|
|----------------------------------------|
|----------------------------------------|left
|-------3---------2---------1------------| gtr
|-2-2-2-----2-2-2-----2-2-2-----2-2-2-5--|
|-0-0-0-----0-0-0-----0-0-0-----0-0-0----|
| . . .     . . .     . . .     . . .
|----------------------------------------|
|----------------------------------------|
|-------5---------4---------3---------2--|right
|----------------------------------------| gtr
|-2-2-2-----2-2-2-----2-2-2-----2-2-2----|
|-0-0-0-----0-0-0-----0-0-0-----0-0-0----|
  . . .     . . .     . . .     . . .

Riff 1b (2 times)
|----------------------------------------|
|----------------------------------------|
|------ph--------ph--------ph------------|left
|-------3---------2---------1--------ph--| gtr
|-2-2-2-----2-2-2-----2-2-2-----2-2-2-5--|
|-0-0-0-----0-0-0-----0-0-0-----0-0-0----|
| . . .     . . .     . . .     . . .
|----------------------------------------|
|----------------------------------------|
|-------5---------4---------3---------2--|right
|----------------------------------------| gtr
|-2-2-2-----2-2-2-----2-2-2-----2-2-2----|
|-0-0-0-----0-0-0-----0-0-0-----0-0-0----|
  . . .     . . .     . . .     . . .

Riff 2 (4 times)
|--------------------------------------|
|--------------------------------------|
|--------------------------------------|
|-----10"--9"------9"--8"------8"--7"--|
|------8"--7"------7"--6"------6"--5"--|
|--0"----------0"----------0"----------|


Riff 3 (4 times)
|--------------------------|
|--------------------------|
|--------------------------|
|---10"----9"----8"----7"--|
|----8"----7"----6"----5"--|
|-0"----0"----0"----0"-----|


Riff 4 (4 times)
|-------------------------------------|
|-------------------------------------|
|-------------------------------------|
|-------------------------------------|
|-8"-7"-------------------------------|
|-------9"-8"-6"-5"-8"-7"-4"-3"-1"-0"-|


Riff 5 (7 times)
|--------------------------|
|--------------------------|
|--------------------------|
|--------------------------|
|-------------------4"5"4--|
|-3"-2"-6"-5"-3"-2"--------|


Riff 4 (4 times)
Riff 5 (7 times)
Riff 3 (4 times)


Riff 6 (14 times)
|----------------------------|
|----------------------------|
|----------------------------|
|-9------10------9-----------|
|-7-------8------7------1098-|
|---0000----0000---0000------|


Intro to solo                              *1/4 bend,release,1/4bend
|----------------------------------------------------------------|
|----------------------------------------------------------------|
|------------1414-16~--19~--17-16/14-14--16*brb-14---13-----/14~-|lead
|-/14~--15~--------------------------------------------15~-------| gtr
|----------------------------------------------------------------|
|----------------------------------------------------------------|
|
|------------------------20----------24--------------------------|
|-/17~--1818--17----18---------21-22------------22-20------rest--|
|----------------------------------------------------------------|2nd
|----------------------------------------------------------------| gtr
|----------------------------------------------------------------|
|----------------------------------------------------------------|



|----------------17~--16-17-20~---19-17-16~-----------------|
|--------------------------------------------18-17-18---21--|
|-----------------------------------------------------------|lead
|-15-14~---/15----------------------------------------------| gtr
|-----------------------------------------------------------|
|-----------------------------------------------------------|
|
|-----------------------------------------------------------|
|----/18-1717-----------------------------------------------|
|---------------------17-------16------------17----16-------|2nd
|-------------------------------------------------------19--| gtr
|-----------------------------------------------------------|
|-----------------------------------------------------------|



|-----------------------------|
|-22-21-18-17-----------------|
|--------------1917~----16~--|lead
|-----------------------------| gtr
|-----------------------------|
|-----------------------------|
|
|-----------------------------|
|-----------------------------|
|-----------------------------|2nd
|----18-----------15~----14~--| gtr
|-----------------------------|
|-----------------------------|
Not completely sure about this, especially the second gtr, but should be
pretty close, I think. Email me with comments or suggestions, please.

Riff 6 (10 times)  -Under intro to solo
Riff 3 (4 times)  -Under solo
Riff 5 (8 times)
Riff 4 (4 times)
Riff 1a (2 times)
Riff 2 (4 times)
Riff 3 (8 times)

Ending
|-------|
|-------|
|-------|
|----9--|
|----7--|
|-0000--|

  Visit MetalTabs.com for more metal tablature