top separator

Home

Forum

What's New

Submit a Tab

FAQ

Links

Contact Us

Link to Us

MuSpy.com

MetalTabs.com logo

Bands

0-9

A

B

C

D

E

F

G

H

I

J

K

L

M

N

O

P

Q

R

S

T

U

V

W

X

Y

Z

Search

What

Where
 

Soulfly - "No Hope = No Fear" Guitar Tab

Plain Text Version
More Soulfly Tabs

Hits: 7464
Rated: 3.50 out of 5 (8 votes)
Updated: 2001-06-20 02:20:32

 

Important note
This tab is available online because we obtained explicit permission from Soulfly or their label.


#----------------------------------PLEASE NOTE---------------------------------#
#This file is the author's own work and represents their interpretation of the #
#song. You may only use this file for private study, scholarship, or research. #
#Unless specified otherwise, this is NOT an official tab from the band members.#
#------------------------------------------------------------------------------#

  Visit MetalTabs.com for more metal tablature
  
NO HOPE = NO FEAR

from: SOULFLY

Tunned to C#?

e|------------------------------|
B|------------------------------|
G|------------------------------|
D|------------------------------|
A|------------------------------|
E|--4-0-1--1-0-1--1-0-1--1-0-1--|

e|-------------------|
B|-------------------|
G|-------------------|
D|-------------------|
A|-------------------|
E|--4-4-4-4-4-4-4-4--|


e|------------------------------|
B|------------------------------|
G|------------------------------|
D|------------------------------|
A|--6-2-3--3-2-3--3-2-3--3-2-3--|
E|--4-0-1--1-0-1--1-0-1--1-0-1--|

e|-------------------|
B|-------------------|
G|-------------------|
D|-------------------|
A|--6----------------|
E|--4----------------|

e|----------------------------|
B|----------------------------|
G|----------------------------|
D|----------------------------|
A|--6-6--3-3--5-5--2-2---/x\--|
E|--4-4--1-1--3-3--0-0---/x\--|

e|----------------------------|
B|----------------------------|
G|----------------------------|
D|----------------------------|
A|--6-6--3-3--5-5--2-2--xxxx--|
E|--4-4--1-1--3-3--0-0--xxxx--|

e|-----------------------------|
B|-----------------------------|
G|-----------------------------|
D|-----------------------------|
A|-----------------------------|
E|--4-4--1-1--3-3--0-0--0-1-3--|


e|----------------------------------|
B|----------------------------------|
G|----------------------------------|
D|----------------------------------|
A|----------------------------------|
E|--1-0-1--1-0-1--1-0-1--1-0-4-4-4--|

etc.

Tabbed by Vogi(vogi@geocities.com)

  Visit MetalTabs.com for more metal tablature

bottom separator

Contact Us | Privacy Policy | Disclaimer | Legal Notice
Copyright © 2001-2014 MetalTabs.com. All Rights Reserved.