top separator

Home

Forum

What's New

Submit a Tab

FAQ

Links

Contact Us

Link to Us

MetalTabs.com logo

Bands

0-9

A

B

C

D

E

F

G

H

I

J

K

L

M

N

O

P

Q

R

S

T

U

V

W

X

Y

Z

Search

What

Where
 

Toxik - "Shotgun Logic" Guitar Tab

Plain Text Version
More Toxik Tabs

Hits: 4344
Rated: 5.00 out of 5 (3 votes)
Updated: 2007-11-28 23:29:49

 

By:

MetalThrashingMad

sendpm.gif

email.gif

Co-authored by:

Hidrio

sendpm.gif

email.gif

Important note
This tab is available online because we obtained explicit permission from Toxik or their label.


#----------------------------------PLEASE NOTE---------------------------------#
#This file is the author's own work and represents their interpretation of the #
#song. You may only use this file for private study, scholarship, or research. #
#Unless specified otherwise, this is NOT an official tab from the band members.#
#------------------------------------------------------------------------------#

  Visit MetalTabs.com for more metal tablature
  
SHOTGUN LOGIC
                             As recorded by Toxik
                        (From the 1989 Album THINK THIS)
                     Copyright (c) 1989 Roadrunner Records

Email - Steve - Thrasher502@hotmail.com

Email - Ryan -  ryanhidrio@hotmail.com

Version - 1.0 - November 23, 2007

Song written by Toxik

Tuning - Standard

 _________________________________________
|                                         |
|                 KEY:                    |
|                                         |
|                                         |
| _ = Palm mute           x = scrape      |
|                                         |
| / = slide up            \ = slide down  |
|                                         |
| h = hammer-on           p = pull-off    |
|                                         |
| ph = pinched harmonic   \               |
|                          \  = dive with |
| sh = semi-harmonic        \      bar    |
|                                         |
| ~ = vibrato             _ = palm mute   |
|_________________________________________|




Intro
 0:12 x 2
|---------------------------------|-------------------------------|
|---------------------------------|-------------------------------|
|----------------------9---8------|-------------------------------|
|--------------8---7-----------8--|-9---7---8---6---7---5---6---8-|
|-0-0-7-0-6-0---0---0---0---0---0-|---0---0---0---0---0---0---0-6-|
|---------------------------------|-------------------------------|


 x2
|---------------------------------|-------------------------------|
|---------------------------------|-------------------------------|
|----------------------9---8------|-------------------------------|
|--------------8---7-----------8--|-9---7---8---6---7---5---6---8-|
|-----7---6-----------------------|-----------------------------6-|
|---------------------------------|-------------------------------|
|                                                                 |
|---------------------------------|-------------------------------|
|---------------------------------|-------------------------------|
|---------------------------------|-------------------------------|
|---------------------------------|---------------------------8---|
|-0-0-0-0-0-0-0-0-0-0-0-0-0-0-0-0-|-0-0-0-0-0-0-0-0-0-0-0-0-0-6---|
|---------------------------------|-------------------------------|


 x2
|---------------------------------|------------------------------|
|----------------------12--11-----|------------------------------|
|--------------10--9---9---8---10-|11--9---10--8---9---7---8-----|
|-----9---8----8---7-----------8--|-9--7---8---6---7---5---6---8-|
|-----7---6-----------------------|----------------------------6-|
|---------------------------------|------------------------------|
|                                                                |
|---------------------------------|------------------------------|
|---------------------------------|------------------------------|
|---------------------------------|------------------------------|
|---------------------------------|---------------------------8--|
|-0-0-0-0-0-0-0-0-0-0-0-0-0-0-0-0-|-0-0-0-0-0-0-0-0-0-0-0-0-0-6--|
|---------------------------------|------------------------------|


Riff 1a
 0:33 x3                                  Riff 1b
|--------------------------------------| |------------------------------------|
|--------------------------------------| |------------------------------------|
|----------------12-------11-------10--| |------------------------------------|
|-13-----13------12-------11-------10--| |-13------13-------12--12--12--12----|
|-11-----11----------0000-----0000-----| |-11------11-------10--10--10--10----|
|-9------9-----------------------------| |-9-------9--------8---8---8---8-----|

 Riff 2
|-----------------------------------------|
|-----------------------------------------|
|-----------------------------------------|
|-10--10--7----------5--------------------|
|-8---8---7----6-6---2-----3--3--3--3-3-3-|
|-6---6---5----4-4---3-----1--1--1--1-1-1-|


 Chorus a - 0:48 x2
|----------------------|---------------------|
|----------------------|---------------------|
|----------------------|---------------------|
|----------------------|-----------8-7-6-----|
|----10-8---7-8-----10-|----10-8---6-5-4-----|
|-00-8--6-0-5-6--00-8--|-00-8--6-0-------654-|
  __      _      __      __      _       ___


 Chorus b
|-------------------------|----------------------|
|-------------------------|----------------------|
|-------------------------|----------------------|
|-------------------------|------------8-7-6-----|
|----10--8----7-8------10-|----10-8----6-5-4-----|
|-00-8---6-0--5-6---00-8--|-00-8--6--0-------654-|
| __       _        __      __       _       ___ |
|-------------------------|----------------------|
|----13-11---11-12-----13-|----13-11-------------|
|----12-10---9--10-----12-|----12-10-------------|
|-------------------------|------------8-7-6-----|
|-------------------------|------------6-5-4-----|
|-00----------------------|----------0-------654-|
  __                                 _       ___


|-------------------------|----------------------|
|-------------------------|----------------------|
|-------------------------|----------------------|
|-------------------------|------------8-7-6-----|
|----10--8----7-8------10-|----10-8----6-5-4-----|
|-00-8---6-0--5-6---00-8--|-00-8--6--0-----------|
| __       _        __      __       _           |
|-------------------------|----------------------|
|----13-11---11-12-----13-|----13-11-------------|
|----12-10---9--10-----12-|----12-10-------------|
|-------------------------|------------8-7-6-----|
|-------------------------|------------6-5-4-----|
|-00----------------00----|-00-------0-----------|
  __                __      __       _


 Verse 1 - 1:03
|-------------|-------------------|-------------|-------------------|
|-------------|-------------------|-------------|-------------------|
|-------------|-------------------|-------------|-------------------|
|----5--------|----5-----8--7--6--|----5--------|----5-----8--7--6--|
|-7--3--6-----|-7--3--6--6--5--4--|-7--3--6--/\-|-7--3--6--6--5--4--|
|-5-----4-----|-5-----4-----------|-5-----4-----|-5-----4-----------|



 Verse 2                   sh |- -|
|------------------|----------------|------------------|-------------------|
|------------------|----------------|------------------|-------------------|
|------------------|----------------|------------------|------------10-9-8-|
|------------------|----------------|------------------|------------8--7-6-|
|----333-----------|----333---6-5-4-|----333-----------|-----333----6--5-4-|
|-555---4444444444-|-555---44-------|-555---4444444444-|-555-----44--------|
  ________________   ________         ________________   __________


 Play Riff 1a x3


 Riff 1c
|----------------------------------|
|----------------------------------|
|----------------------------------|
|-13-----13------5------5---5------|
|-11-----11------3------3---3------|
|-9------9-------1------1---1------|


 Play verse 1
 Play verse 2
 Play riff 1c


 Riff 2 (altered, two guitars)
|-----------------------------------------------|
|--------------------------13--13--13--13-13-13-|
|--------------------------12--12--12--12-12-12-|
|-10--10--7----------5--------------------------|
|-8---8---7----6-6---2-----3---3---3---3--3--3--|
|-6---6---5----4-4---3-----1---1---1---1--1--1--|


 Play chorus a
 Play chorus b (guitar 1)
 Play verse 1
 Play verse 2
 Play riff 1a x3
 Play riff 2
 Play chorus a x4


 2:53
|---------------------------------------------------------|
|---------------------------------------------------------|
|-------5-7--7/10\7---7-----7p5---------------------------|
|-----8-------------------------5-5/7-7h10----------------|
|---6-----------------------------------------------------|
|-4-------------------------------------------------------|



|---------------------------------------------------------|
|-----------------8---6h8p6---5h6p5---6-\-3---------------|
|-----7--7h8p7-8------------------------------------------|
|---------------------------------------------------------|
|---8-----------------------------------------------------|
|-6-------------------------------------------------------|


 3:05
|-6-5-----------------------------10----------10----------|
|-----8-------------------11-10-8----------11----8--------|
|-------8------8-----------------------------------11~~~--|
|---------8--------8-------------------8------------------|
|-----------6----6----------------------------------------|
|---------------------------------------------------------|
|                                                         |
|---------------------------------------------------------|
|-------------------------6--5--3--3-------3--------------|
|-------------------------7--6--4----2--3-5------0--------|
|-------------------------8--7--5-------------------4-----|
|-------------------------8--7--5-------------------------|
|---------------------------------------------------------|
|                                                         |
|---------------------------------------------------------|
|--[electric guitar]--------------------------------------|
|---------------------------------------------------------|
|-------------------------8--7--5-------------------------|
|-------------------------8--7--5-------------------------|
|-------------------------6--5--3-------------------------|


 Acoustic fig 1 - 3:11 x2
|-------------------------------------------------|
|-------------1-----1-----------------1-----------|
|-----0-----0---2-----2-------0-----0---2---------|
|---4-----4-------0-----0---4-----4-------0-------|
|-7-----7-----------------7-----7-----------3-----|
|-------------------------------------------------|
|                                                 |
|-----7-----7-----10----------7-----7-----10------|
|---8-----8-----8-----8-----8-----8-----8---------|
|-9-----9-----9-----9---9-9-----9-----9-----7-----|
|-------------------------------------------------|
|-------------------------------------------------|
|-------------------------------------------------|


|-------------------------------------------------|
|-------------------------------------------------|
|-------------------------------------------------|
|-----0-----0-----0-----0-0----------------0-0----|
|---2-----2-----2-----2-----2------------2--------|
|-3-----3-----3-----3---------3-2-3-5--3----------|
|                                                 |
|----------10----------10-7-----------------------|
|---------8-----------8----10-8-7-8-10-7-8-10-----|
|-----7-7---------7-7------------------------9----|
|---9-----------9---------------------------------| [end
|-10----------10----------------------------------|  acoustic
|-------------------------------------------------|   fig 1 ]


 Acoustic fig 2 - 3:28 x2
|-------------------------------------------------|
|-------------1-----1-----------------1-----------|
|-----0-----0---2-----2-------0-----0---2---------|
|---4-----4-------0-----0---4-----4-------0-------|
|-7-----7-----------------7-----7-----------3-----|
|-------------------------------------------------|
|                                                 |
|-----7-----7-----10----10----7-----7-----10------|
|---8-----8-----8-----8-----8-----8-----8---------|
|-9-----9-----9-----9-----9-----9-----9-----7-----|
|-------------------------------------------------|
|-------------------------------------------------|
|-------------------------------------------------|

|-------------------------------------------------|
|-------------------------------------------------|
|-------------------------------------------------|
|-----0-----0-----0-----0-0-----------------------|
|---2-----2-----2-----2-----2---------------------|
|-3-----3-----3-----3---------3-2-3-5--2-3-5-0----|
|                                                 |
|-------------------------------------------------|
|---------10----------10------0-----0-----0-------|
|-----7-7---7-----7-7---7-------------------------|
|---9-----------9---------4-4---4-4---4-4---4-----| [end
|-10----------10----------------------------------|  acoustic
|-------------------------------------------------|   fig 2]


|-------------------------------------------------|
|-------------1-----1-----------------1-----------|
|-----0-----0---2-----2-------0-----0---2---------|
|---4-----4-------0-----0---4-----4-------0-------|
|-7-----7-----------------7-----7-----------3-----|
|-------------------------------------------------|
|                                                 |
|-----7-----7-----10----10----7-----7-----10------|
|---8-----8-----8-----8-----8-----8-----8---------|
|-9-----9-----9-----9-----9-----9-----9-----7-----|
|-------------------------------------------------|
|-------------------------------------------------|
|-------------------------------------------------|

                          3:58
|-------------------------------------------------|
|-------------------------------------------------|
|-------------------------4-----5-----6-----7-----|
|-----0-----0-----0-----0-4-----5-----6-----7-----|
|---2-----2-----2-----2---2-----3-----4-----5-----|
|-3-----3-----3-----3-----------------------------|
|                                                 |
|-------------------------------------------------|
|---------10----------10------0-----0-----0-------|
|-----7-7---7-----7-7---7-------------------------|
|---9-----------9---------4-4---4-4---4-4---4-----|
|-10----------10----------------------------------|
|-------------------------------------------------|
|                                                 |
|-------------------------------------------------|
|-------------------------------------------------|
|-------------------------4-----5-----6-----7-----|
|-------------------------4-4-4-5-5-5-6-6-6-7-7-7-|
|-------------------------2-2-2-3-3-3-4-4-4-5-5-5-|
|-------------------------------------------------|


 4:01
|-------------------------------------------|------------------------------|
|-------------------------------------------|------------------------------|
|------------------12--12121212--12--12--12-|------------------------------|
|---------9----------------------12---------|---------9---------------10\--|
|-7--777--7--7--7--10--10101010--10--10--10-|-7--777--7--7--7---------10\--|
|-------------------------------------------|-----------------8--8--8-8-\--|
|                                                                          |
|-------------------------------------------|------------------------------|
|-------------------------------------------|--------------------10---10\--|
|-------------------------------------------|--------------------7--0-7-\--|
|---------9----------------------10---------|---------9----------9----9-\--|
|-7--777--7--7--7--10--10101010--10--10--10-|-7--777--7--77-9-10-----------|
|------------------8---8-8-8-8---8---8---8--|------------------------------|

|---------------------------------|
|---------------------------------|
|---------4-----5-----6-----7-----|
|-4---5---4-4-4-5-5-5-6-6-6-7-7-7-|
|-4---5---2-2-2-3-3-3-4-4-4-5-5-5-|
|-2---3---------------------------|

 4:08
|-------------------------------------------|------------------------------|
|-------------------------------------------|------------------------------|
|---------9--------12--12121212--12--12--12-|------------------------------|
|---------9----------------------12---------|---------9---------------10\--|
|-7--777--7--7--7--10--10101010--10--10--10-|-7--777--7--7--7---------10\--|
|-------------------------------------------|-----------------8--8--8-8-\--|
|                                                                          |
|-------------------------------------------|------------------------------|
|-------------------------------------------|--------------------10---10\--|
|---------9---------------------------------|--------------------7--0-7-\--|
|---------9----------------------10---------|---------9----------9----9-\--|
|-7--777--7--7--7--10--10101010--10--10--10-|-7--777--7--77-9-10-----------|
|------------------8---8-8-8-8---8---8---8--|------------------------------|

|---------------------------------|
|---------------------------------|
|---------4-----5-----6-----7-----|
|-4---5---4-4-4-5-5-5-6-6-6-7-7-7-|
|-4---5---2-2-2-3-3-3-4-4-4-5-5-5-|
|-2---3---------------------------|


 4:15
|-------------------------------------------|------------------------------|
|-------------------------------------------|------------------------------|
|---------9--------12--12121212--12--12--12-|------------------------------|
|---------9----------------------12---------|---------9---------------10\--|
|-7--777--7--7--7--10--10101010--10--10--10-|-7--777--7--7--7---------10\--|
|-------------------------------------------|-----------------8--8--8-8-\--|
|                                                                          |
|-------------------------------------------|------------------------------|
|-------------------------------------------|--------------------10---10\--|
|---------9---------------------------------|--------------------7--0-7-\--|
|---------9----------------------10---------|---------9----------9----9-\--|
|-7--777--7--7--7--10--10101010--10--10--10-|-7--777--7--77-9-10-----------|
|------------------8---8-8-8-8---8---8---8--|------------------------------|


|---------------------------------|
|---------------------------------|
|---------4-----5-----6-----7-----|
|-4---5---4-4-4-5-5-5-6-6-6-7-7-7-|
|-4---5---2-2-2-3-3-3-4-4-4-5-5-5-|
|-2---3---------------------------|


 4:22
|-------------------------------------------|------------------------------|
|-------------------------------------------|------------------------------|
|---------9--------12--12121212--12--12--12-|------------------------------|
|---------9----------------------12---------|---------9---------------10\--|
|-7--777--7--7--7--10--10101010--10--10--10-|-7--777--7--7--7---------10\--|
|-------------------------------------------|-----------------8--8--8-8-\--|
|                                                                          |
|-------------------------------------------|------------------------------|
|-------------------------------------------|--------------------10---10\--|
|---------9---------------------------------|--------------------7--0-7-\--|
|---------9----------------------10---------|---------9----------9----9-\--|
|-7--777--7--7--7--10--10101010--10--10--10-|-7--777--7--77-9-10-----------|
|------------------8---8-8-8-8---8---8---8--|------------------------------|

|---------------------------------|
|---------------------------------|
|---------4-----5-----6-----7-----|
|-4---5---4-4-4-5-5-5-6-6-6-7-7-7-|
|-4---5---2-2-2-3-3-3-4-4-4-5-5-5-|
|-2---3---------------------------|


|-------------------------|-------------------------|
|-------------------------|-------------------------|
|-4-----5-----6-----7-----|-4-----5-----6-----7-----|
|-4-4-4-5-5-5-6-6-6-7-7-7-|-4-----5-5-5-6-6-6-7-7-7-|
|-2-2-2-3-3-3-4-4-4-5-5-5-|-2-222-3-3-3-4-4-4-5-5-5-|
|-------------------------|-------------------------|
|                                                   |
|-------------------------|-------------------------|
|-------------------------|-------------------------|
|-4-----5-----6-----7-----|-4\--/-5\--/-6\--/-7-----|
|-4-4-4-5-5-5-6-6-6-7-7-7-|---\-----\-----\---------|
|-2-2-2-3-3-3-4-4-4-5-5-5-|-2\--/-3\--/-4\--/-5-----|
|-------------------------|---\-----\-----\---------|


 2 gtrs
|-------------------------------------------|
|-------------------------------------------|
|-------------------------------------------|
|----5-~~~---------5-~~~--------3-----------|
|-3--3-~~~---------3-~~~--------3---[rest]--|
|-1----~~~---------1-~~~--------1-----------|
|                                           |
|-------------------------------------------|
|------------------/8-~~~-------------------|
|------------------/7-~~~-------------------|
|-/10-~~~-----------------------3-----------|
|-/8--~~~-----------------------3---[rest]--|
|-------------------------------1-----------|


Play Chorus a x8


 Outro
|-------------------------------------------------------------|
|-------------------------------------------------------------|
|-------------------------------------------------------------|
|--------------------------------------------2--2--2--2--2--2-|
|-8-7-6-----8-7-6---8-7-6---8-7-6---8-7-6----2--2--2--2--2--2-|
|-6-5-4-----6-5-4-0-6-5-4-0-6-5-4-0-6-5-4-0--0--0--0--0--0--0-|

END

  Visit MetalTabs.com for more metal tablature

bottom separator

Contact Us | Privacy Policy | Disclaimer | Legal Notice
Copyright © 2001-2014 MetalTabs.com. All Rights Reserved.