top separator

Home

Forum

What's New

Submit a Tab

FAQ

Links

Contact Us

Link to Us

MetalTabs.com logo

Bands

0-9

A

B

C

D

E

F

G

H

I

J

K

L

M

N

O

P

Q

R

S

T

U

V

W

X

Y

Z

Search

What

Where
 

Soulfly - "No" Guitar Tab

Plain Text Version
More Soulfly Tabs

Hits: 4271
Rated: 5.00 out of 5 (1 vote)
Updated: 2004-05-16 13:56:08

 

Important note
This tab is available online because we obtained explicit permission from Soulfly or their label.


#----------------------------------PLEASE NOTE---------------------------------#
#This file is the author's own work and represents their interpretation of the #
#song. You may only use this file for private study, scholarship, or research. #
#Unless specified otherwise, this is NOT an official tab from the band members.#
#------------------------------------------------------------------------------#

  Visit MetalTabs.com for more metal tablature
  
Taken with permission from www.SoulflyTribe.com

"No" by Soulfly
Off their self titled debut album

Drop D tuning down 3 steps (Ab Eb Ab Db F Bb)

LEGEND:
	/ or \ - slide up or down
	~~     - vibrato
	p      - pull off
  	h	 - hammer on
 	b	 - bend
	N	 - natural harmonics
	A	 - artifical harmonics
	*	 - palm mute
	trem.  - tremelo pick
        ^	 - arpeggiate

----------------------------------------------------------------------------

Main Riff

B|----------------|
F|----------------|
D|----------------|
A|----------------|
E|----------------|
A|-1-0-1-0/4-4-4--|


Fill One

B|------17-17-17-17------17-17-17b-17----|
F|---------------------------------------|
D|---------------------------------------|
A|---------------------------------------|
E|---------------------------------------|
A|-0-0---------------0-0-----------------|

Break

B|----------------------------------------|
F|----------------------------------------|
D|----------------------------------------|
A|----------------------------------------|
E|----------------------------------------|
B|-0-0--3h4-4--3h4-4--3h4-4--4-3-4-3------|

Fill Two (the "N-O" bit)

B|-----------------------------|
F|-----------------------------|
D|-----------------------------|
A|-----------------------------|
E|------3-4-4--3-4-4--3-4-4----|
B|-0-0--3-4-4--3-4-4--3-4-4----|


----------------------------------------------------------------------------

Any suggestions, questions, additions, email me at dimebag@tpgi.com.au

  Visit MetalTabs.com for more metal tablature

bottom separator

Contact Us | Privacy Policy | Disclaimer | Legal Notice
Copyright © 2001-2014 MetalTabs.com. All Rights Reserved.