top separator

Home

Forum

What's New

Submit a Tab

FAQ

Links

Contact Us

Link to Us

MetalTabs.com logo

Bands

0-9

A

B

C

D

E

F

G

H

I

J

K

L

M

N

O

P

Q

R

S

T

U

V

W

X

Y

Z

Search

What

Where
 

Believer - "Nonpoint" Guitar Tab

Plain Text Version
More Believer Tabs

Hits: 3198
Rated: 5.00 out of 5 (2 votes)
Updated: 2008-07-30 07:26:47

 

By:

MetalThrashingMad

sendpm.gif

email.gif

Co-authored by:

Hidrio

sendpm.gif

email.gif

Important note
This tab is available online because we obtained explicit permission from Believer or their label.


#----------------------------------PLEASE NOTE---------------------------------#
#This file is the author's own work and represents their interpretation of the #
#song. You may only use this file for private study, scholarship, or research. #
#Unless specified otherwise, this is NOT an official tab from the band members.#
#------------------------------------------------------------------------------#

  Visit MetalTabs.com for more metal tablature
  
================================================================================
                                     NONPOINT
                             As recorded by Believer
                       (From the 1990 Album SANITY OBSCURE)
                     Copyright (c) 1990 Roadrunner Records
                                                   _______________________
Transcribed by:                                   | KEY:                  |
                Steve Rubaszek and Ryan Hidrio    |                       |
                                                  | _  = Palm mute        |
Email:                                            |                       |
                Thrasher502@hotmail.com           | \/ = slide down/up    |
                                                  |                       |
Version: 1.1                                      | h  = hammer on        |
                July 19, 2008                     |                       |
                                                  | p  = pull off         |
Arranged by Believer                              |                       |
                                                  | () = sustain note     |
                                                  |_______________________|
Tuning: D G C F A D


 0:00-0:33
|---------0-----1-----1-----1-----|
|-----1-----1-----1-----1-----1---|
|---2---2-----2-----2-----2-----2-|
|---------------------------------|
|-0-------------------------------|
|---------------------------------|


|---0-----0-----0-----0-----0-----|
|-----2-----2-----2-----2-----2---|
|-------3-----3-----3-----3-----3-|
|-3-------------------------------|
|---------------------------------|
|---------------------------------|


 0:33-0:38
|---------0-----1-------(1)-------|
|-----1-----1---------------------|
|---2---2-----2-------------------|
|---------------------------------|
|-0-------------------------------|
|---------------------------------|


 0:39-0:56                end1      end2
|------------------------|---------|---------------|
|------------------------|---------|---------------|
|---------5-------5----5-|----5----|---------2h3h5-|
|---------5-------5----5-|--4---4--|--2h3h5--------|
|-0000000---00-00---00---|---------|---------------|
|------------------------|---------|---------------|
  _______   _____   __


 0:57-1:14                           end1      end2
|----------------------------------|------------|---------------|
|----------------------------------|------------|---------------|
|---------5--------------5----5----|-------5----|---------2h3h5-|
|---------5--------------5----5----|-----4---4--|--2h3h5--------|
|-0000000---000000000000---00---00-|-000--------|---------------|
|----------------------------------|------------|---------------|
  _______   ____________   __   __   ___


 1:15-1:33
|-------------------------------------------------------|
|-------------------------------------------------------|
|-------------7h8p7-------------7-8-7-------6-5-------7-|
|---------7-8-------10-8-7-8-10-----------------6-0-6---|
|-0-0-0-0-----------------------------0-0-0-------------|
|-------------------------------------------------------|
  _______                             _____


 1:34-1:48
|---------------------------|-----------------|
|---------------------------|-----------------|
|---------------------------|-----------------|
|-------------3-3-------3---|---7---7---6---3-|
|-0-000-0-0-0-----4-4-4-4---|-0-5---5---4---4-|
|---------------------------|---------------6-|
  _____________________       _


 1:48-2:10
|-------------------|----------------------|
|-------------------|----------------------|
|-------------------|----------------------|
|-----14---12----10-|---9-----9h10p9-------|
|-0-0----0---0-0----|-0---0-0--------12-10-|
|-------------------|----------------------|
  ___    _   ___      _   ___


|------------------|--------------------------------|
|------------------|--------------------------------|
|------------------|--------------------------------|
|-----14---12------|-14/13-13/12-12/11-11/10---9-10-|
|-0-0----0---0-0-0-|-15/14-14/13-13/12-12/11--10-11-|
|------------------|--------------------------------|
  ___    _   _____


 2:11-2:24
|-------------------------------------------------------|
|-------------------------------------------------------|
|-------------7h8p7-------------7-8-7-------6-5-------7-|
|---------7-8-------10-8-7-8-10-----------------6-0-6---|
|-0-0-0-0-----------------------------0-0-0-------------|
|-------------------------------------------------------|
  _______                             _____


 2:25-2:40
|---------------------------|-----------------|
|---------------------------|-----------------|
|---------------------------|-----------------|
|-------------3-3-------3---|---7---7---6---3-|
|-0-000-0-0-0-----4-4-4-4---|-0-5---5---4---4-|
|---------------------------|---------------6-|
  _____________________       _


 2:41-3:00
|-------------------|----------------------|
|-------------------|----------------------|
|-------------------|----------------------|
|-----14---12----10-|---9-----9h10p9-------|
|-0-0----0---0-0----|-0---0-0--------12-10-|
|-------------------|----------------------|
  ___    _   ___      _   ___


|------------------|--------------------------------|
|------------------|--------------------------------|
|------------------|--------------------------------|
|-----14---12------|-14/13-13/12-12/11-11/10---9-10-|
|-0-0----0---0-0-0-|-15/14-14/13-13/12-12/11--10-11-|
|------------------|--------------------------------|
  ___    _   _____


 3:01-3:04
|-------------------------------------------------------|
|-------------------------------------------------------|
|-------------7h8p7-------------7-8-7-------6-5-------7-|
|---------7-8-------10-8-7-8-10-----------------6-0-6---|
|-0-0-0-0-----------------------------0-0-0-------------|
|-------------------------------------------------------|
  _______                             _____


 Atheist riffs - 3:05-3:29
|-----------------------|-------------------|-------------------|
|-----------------------|-------------------|-------------------|
|-------2-3-2-(2)-2-3---|-------------------|-------------------|
|--------------3--------|-------3-----2---5-|-5-----------------|
|-0-0-0---------------0-|-0-0-2---2-1---0-3-|-3-1-1-1-5-4-5-4-0-|
|-----------------------|-------------------|-------------------|
  _____               _______ _   ___           _____


|-----------------|---------------|
|-----------------|---------------|
|-------2-3-2-----|---------------|
|-------------3---|---------------|
|-0-0-0---------5-|-3-3-3-0-5-7-8-|
|-----------------|---------3-5-6-|
  _____                     ___


 3:30 - 4:04              end1      end2
|------------------------|---------|---------|
|------------------------|---------|---------|
|---------2-------4----4-|---------|---------|
|---------2-------4----4-|------3--|------5--|
|-0000000-0-00-22-2-22-2-|------3--|------5--|
|------------------------|-1111-1--|-3333-3--|
  _______   _____   __     ____      ____


 4:05-4:08
|--------------------------------|
|--------------------------------|
|---------2-------4----4---------|
|---------2-------4----4------3--|
|-0000000-0-00-22-2-22-2------3--|
|------------------------1111-1--|
  _______   _____   __   ____


 4:09-4:24
|---------------------------|-----------------|
|---------------------------|-----------------|
|---------------------------|-----------------|
|-------------3-3-------3---|---7---7---6---3-|
|-0-000-0-0-0-----4-4-4-4---|-0-5---5---4---4-|
|---------------------------|---------------6-|
  _____________________       _


 4:25-4:38
|-------------------------------------------------------|
|-------------------------------------------------------|
|-------------7h8p7-------------7-8-7-------6-5-------7-|
|---------7-8-------10-8-7-8-10-----------------6-0-6---|
|-0-0-0-0-----------------------------0-0-0-------------|
|-------------------------------------------------------|
  _______                             _____


 4:39-4:54
|---------------------------|-----------------|
|---------------------------|-----------------|
|---------------------------|-----------------|
|-------------3-3-------3---|---7---7---6---3-|
|-0-000-0-0-0-----4-4-4-4---|-0-5---5---4---4-|
|---------------------------|---------------6-|
  _____________________       _


 4:55-5:14
|-------------------|----------------------|
|-------------------|----------------------|
|-------------------|----------------------|
|-----14---12----10-|---9-----9h10p9-------|
|-0-0----0---0-0----|-0---0-0--------12-10-|
|-------------------|----------------------|
  ___    _   ___      _   ___


|------------------|--------------------------------|
|------------------|--------------------------------|
|------------------|--------------------------------|
|-----14---12------|-14/13-13/12-12/11-11/10---9-10-|
|-0-0----0---0-0-0-|-15/14-14/13-13/12-12/11--10-11-|
|------------------|--------------------------------|
  ___    _   _____


 5:15-end
|--------------------------------------------------------|
|--------------------------------------------------------| ___
|-------------7h8p7-------------7-8-7-------6-5-------7--|    |
|---------7-8-------10-8-7-8-10-----------------6-0-6----|    |- Guitar I
|-0-0-0-0-----------------------------0-0-0--------------| ___|
|--------------------------------------------------------|
| _______                             _____              |
|--------------------------------------------------------|
|-------------------------------------------9-8-------10-| ___
|-------------7h8p7-------------7-8-7-----------8---8----|    |
|---------7-8-------10-8-7-8-10-------------------7------|    |- Guitar II
|-0-0-0-0-----------------------------0-0-0--------------| ___|
|--------------------------------------------------------|
  _______                             _____

  Visit MetalTabs.com for more metal tablature

bottom separator

Contact Us | Privacy Policy | Disclaimer | Legal Notice
Copyright © 2001-2014 MetalTabs.com. All Rights Reserved.