top separator

Home

Forum

What's New

Submit a Tab

FAQ

Links

Contact Us

Link to Us

MetalTabs.com logo

Bands

0-9

A

B

C

D

E

F

G

H

I

J

K

L

M

N

O

P

Q

R

S

T

U

V

W

X

Y

Z

Search

What

Where
 

Forest of Impaled - "For Ours Is The Kingdom (Desecrate The Heavens)" Guitar Tab

Plain Text Version
More Forest of Impaled Tabs

Hits: 1523
Updated: 2007-06-24 23:27:01

 

By:

goatman

sendpm.gif

email.gif

Important note
This tab is available online because we obtained explicit permission from Forest of Impaled or their label.


#----------------------------------PLEASE NOTE---------------------------------#
#This file is the author's own work and represents their interpretation of the #
#song. You may only use this file for private study, scholarship, or research. #
#Unless specified otherwise, this is NOT an official tab from the band members.#
#------------------------------------------------------------------------------#

  Visit MetalTabs.com for more metal tablature
  
Band:  (FOREST OF IMPALED)
Album: (DEMONVOID)
Song:  (FOR OURS IS THE KINGDOM(DESECRATE THE HEAVENS))

Copyright (c)  (RED STREAM INC.) (1999)


Transcribed By: (GOATMAN)
Email:          (VIRUS010891@AOL.COM)


. -palm mute
" -tremolo
<> -natural harmonic

Tuning Db standard
                                                                       x2
|-----------------------------------------------------------------------|
|.---------------------------------------------------------------------.|
|-----------------------------------------------------------------------|
|-----------------------------------------------------------------------|
|.(7)"-6"-(7)"(8)"-(7)"-6"-(7)"-----6-9-(7)"-6"(7)"(8)"(7)"-6"(7)"-5-4-.|
|-(5)"-4"-(5)"(6)"-(5)"-4"-(5)"-5-8-----(5)"-4"(5)"(6)"(5)"-4"(5)"-3-2--|
                                . . . .                            . .

|-------------------------------------------------------------------
|.------------------------------------------------------------------
|-------------------------------------------------------------------
|----5---4---5---4-----------------------------------5---4---5---4--
|.-4-5-4-4-4-5-4-4-5-5-5-5-4-4-----5-5-5-5-4-4-----4-5-4-4-4-5-4-4--
|--2---2---2---2---3-3-3-3-2-2-<4>-3-3-3-3-2-2-<4>-2---2---2---2----
   .   .   .   .   . . . . . .     . . . . . .     .   .   .   .
                                 x2
----------------------------------|----------------------------------
---------------------------------.|----------------------------------
----------------------------------|----------------------------------
----------------------------------|-repeat from beginning------------
-5-5-5-5-4-4-3-3-5-5-5-5-4-4-3-3-.|----------------------------------
-3-3-3-3-2-2-1-1-3-3-3-3-2-2-1-1--|----------------------------------
 . . . . . . . . . . . . . . . .
                                                                              x4
|-----------------------------------------------------------------------------|
|.---------------------------------------------------------------------------.|
|-----------------------------------------------------------------------------|
|---------------------------------------------------------------------------4-|
|.--------------------33-3-33-3------------------------------33-3-33-3-6-3-6-.|
|-55-5-55-5-55-5-55-5----------44-4-44-4-55-5-55-5-55-5-55-5------------------|
  .. . .. . .. . .. . .. . .. ... . .. . .. . .. . .. . .. . .. . .. . . . . .
                                                                              x2
|-----------------------------------------------------------------------------|
|.---------------------------------------------------------------------------.|
|----------------------------------------------------------------------------2|
|---------------------11-1-11-1------------------------------11-1-11-1-4-1-4-4|
|.33-3-33-3-33-3-33-3-33-3-33-322-2-22-2-33-3-33-3-33-3-33-3-33-3-33-3-6-3-6-.|
|-55-5-55-5-55-5-55-5----------44-4-44-4-55-5-55-5-55-5-55-5------------------|
  .. . .. . .. . .. . .. . .. ... . .. . .. . .. . .. . .. . .. . .. . . . . .
                   x4                      x4                           x4
|-------------------|-----------------------|----------------------------|
|.-----------------.|.---------------------.|.--------------------------.|
|-------------------|-----------------------|----------------------------|
|-------------------|-10---10-13-9-12-9-12--|----------------------------|
|.-6---6-9-5-8-5-8-.|.-6-12-6--9-5--8-5--8-.|.-6---6-9-5-8-5-8----------.|
|----8--------------|-----8-----------------|----8-----------------------|
   . . . . . . . .     .  . .  . .  . .  .     . . . . . . . .
                   (higher harmony not palm muted)
                       x3
|-----------------------|---------|---------------------------------------
|.---------------------.|---------|.--------------------------------------
|-----------------------|---------|---------------------------------------
|-10---10-13-9-12-9-12--|-(10)ph--|---------------------------------------
|.-6-12-6--9-5--8-5--8-.|---------|.(7)"-6"-(7)"(8)"(7)"-6"-(7)"-----6-9--
|-----8-----------------|---------|-(5)"-4"-(5)"(6)"(5)"-4"-(5)"-5-8------
   .  . .  . .  . .  .                                           . . . .
(higher harmony not palm muted)
                                x2
---------------------------------|---------------------------------------------
--------------------------------.|.--------------------------------------------
---------------------------------|---------------------------------------------
---------------------------------|----5---4---5---4----------------------------
-(7)"-6"(7)"(8)"(7)"-6"(7)"-5-4-.|.-4-5-4-4-4-5-4-4-5-5-5-5-4-4-----5-5-5-5-4-4
-(5)"-4"(5)"(6)"(5)"-4"(5)"-3-2--|--2---2---2---2---3-3-3-3-2-2-<4>-3-3-3-3-2-2
                            . .     .   .   .   .   . . . . . .     . . . . . .

------------------------------------------------------------------------------
------------------------------------------------------------------------------
------------------------------------------------------------------------------
-------5---4---5---4------------------------------------5---4---5---4---------
-----4-5-4-4-4-5-4-4-5-5-5-5-4-4-3-3-5-5-5-5-4-4-3-3--4-5-4-4-4-5-4-4-5-5-5-5-
-<4>-2---2---2---2---3-3-3-3-2-2-1-1-3-3-3-3-2-2-1-1--2---2---2---2---3-3-3-3-
     .   .   .   .   . . . . . . . . . . . . . . . .  .   .   .   .   . . . .
                         x2
--------------------------|----------------------------------------------------
-------------------------.|----------------------------------------------------
--------------------------|----------------------------------------------------
--------------------------|---------------------11-1-11-1----------------------
-4-4-3-3-5-5-5-5-4-4-3-3-.|-33-3-33-3-33-3-33-3-33-3-33-3-22-2-22-2-33-3-33-3--
-2-2-1-1-3-3-3-3-2-2-1-1--|-55-5-55-5-55-5-55-5-----------44-4-44-4-55-5-55-5--
 . . . . . . . . . . . .    .. . .. . .. . .. . .. . .. . .. . .. . .. . .. .

-----------------------------|------------------------------------------------
-----------------------------|.-----------------------------------------------
---------------------------2-|------------------------------------------------
-----------11-1-11-1-4-1-4-4-|------------------------------------------------
-33-3-33-3-33-3-33-3-6-3-6---|.(7)"6"(7)"(8)"(7)"-6"(7)"-----6-9(7)"6"(7)"(8)"
-55-5-55-5-------------------|-(5)"4"(5)"(6)"(5)"-4"(5)"-5-8----(5)"4"(5)"(6)"
 .. . .. . .. . .. . . . . .                              . . . .
                  x2
-------------------|--------------------------------------------------------
------------------.|.-------------------------------------------------------
-------------------|--------------------------------------------------------
-------------------|----5---4---5---4---------------------------------------
-(7)"-6"-(7)"-5-4-.|.-4-5-4-4-4-5-4-4-5-5-5-5-4-4-----5-5-5-5-4-4-----------
-(5)"-4"-(5)"-3-2--|--2---2---2---2---3-3-3-3-2-2-<4>-3-3-3-3-2-2-<4>-------
              . .     .   .   .   .   . . . . . .     . . . . . .
                                                 x2
--------------------------------------------------|
-------------------------------------------------.|
--------------------------------------------------|
---5---4---5---4----------------------------------|
-4-5-4-4-4-5-4-4-5-5-5-5-4-4-3-3-5-5-5-5-4-4-3-3-.|
-2---2---2---2---3-3-3-3-2-2-1-1-3-3-3-3-2-2-1-1--|
 .   .   .   .   . . . . . . . . . . . . . . . .

  Visit MetalTabs.com for more metal tablature

bottom separator

Contact Us | Privacy Policy | Disclaimer | Legal Notice
Copyright © 2001-2014 MetalTabs.com. All Rights Reserved.