top separator

Home

Forum

What's New

Submit a Tab

FAQ

Links

Contact Us

Link to Us

MuSpy.com

MetalTabs.com logo

Bands

0-9

A

B

C

D

E

F

G

H

I

J

K

L

M

N

O

P

Q

R

S

T

U

V

W

X

Y

Z

Search

What

Where
 

Toxik - "Machine Dream" Guitar Tab

Plain Text Version
More Toxik Tabs

Hits: 2984
Rated: 5.00 out of 5 (7 votes)
Updated: 2007-01-14 21:13:50

 

By:

Hidrio

sendpm.gif

email.gif

Important note
This tab is available online because we obtained explicit permission from Toxik or their label.


#----------------------------------PLEASE NOTE---------------------------------#
#This file is the author's own work and represents their interpretation of the #
#song. You may only use this file for private study, scholarship, or research. #
#Unless specified otherwise, this is NOT an official tab from the band members.#
#------------------------------------------------------------------------------#

  Visit MetalTabs.com for more metal tablature
  
Band:  Toxik
Album: Think This
Song:  Machine Dream

Copyright (c)  Roadrunner (1989)
Version 1.0 - 17/12/06
**** Updated - 3/1/07


Transcribed By: Ryan
Email:          ryanhidrio@hotmail.com


.  - palm mute           /  - slide up to
  - slide down to       ~  - vibrato
h  - hammer on           b  - Bend
p  - pull off            Suffixes for bend
t  - tap                 f  - full bend    h - half bend
ph - pinched harmonic    q  - quarter bend t - tap bend
*  - see comment         ^  - Hold bend    r release bend
x  - Staccato            ~  - vibrato bend
,  - slight palm mute    () - ghost note, sustained note
"  - tremolo note        tr - Trill


Tuning E A D G B E



0:00 - 0:09 (Samples)


0:11
|------------------------------------------------------------------|
|---------let ring-------------------------------------------------|
|-8-----6-------------------------8-----6--------------------------|
|-11----9-------------------------11----9--------------------------|
|-9-----7----------------6-----9--9-----7-----2--------------------|
|-7-----5-------------------7-----7-----5------53------------------|


|----------------------------------------------------------|
|---------let ring-----------------------------------------|
|-8-----6-------------------------8-----6------------------|
|-11----9-------------------------11----9------------------|
|-9-----7----------------6-----9--9-----7-----2-----2------|
|-7-----5-------------------7-----7-----5------53----52----|



0:26
|-----------------------------------------|
|-----------------------------------------|
|-----------------------------------------|
|---------------------------542-----------|
|---------------2---3---5------532--------|
|-222---3---5---------------------532-----|



0:29                                              |-3-| |-3-| |-3-|
|-----------------------------------------------------------------------|
|-----------------------------------------------------------------------|
|---------------------------------------ph------------------------------|
|---------------------------------------4-ph------------------------ph--|
|-4-----6-7----------23532-32--2----------3~------------2-3-5-2-3---3---|
|-2-----4-5--/7\--235-----5--53-532~----------8\--2-3-5-----------5-----|  x2


0:41
|------------------------------------------------------------------|
|------------------------------------------------------------------|
|------------------------------------------------------------------|
|---------------------------------------------6--------------------|
|-4-----2-4---6-------------------4-----2-4---4---33333333-6---7\--|
|-2-----0-2---4---5555555555555-7-2-----0-2----------------4---5\--|
                  .............                   ........

                                                  |-3-| |-3-| |-3-|
|-----------------------------------------------------------------------|
|-----------------------------------------------------------------------|
|-----------------------------------------------------------------------|
|---------------------------------------------6---------------------ph--|
|-4-----2-4---6-------------------4-----2-4---4---------2-3-5-2-3---3~--|
|-2-----0-2---4---5555555555555-7-2-----0-2-------2-3-5-----------5-----|
                  .............


0:52
 let ring......|                                 let ring
|-------------------------------------------------------------|
|-------------------------------------------------------------|
|-----8-------------------------------------------------8-----|
|---6-----------------------------6-----------6---------9-----|
|-4-----------4-------------------4-4-4-2-2-2-4-----7---------|
|-------7---------3333333333333-------------------0---7-------|  x2
                  ............      . . . . .


1:03                                             |-3-| |-3-| |-3-|
|-----------------------------------------------------------------------|
|-----------------------------------------------------------------------|
|---------------------------------------ph------------------------------|
|---------------------------------------4-ph------------------------ph--|
|-4-----6-7----------23532-32--2----------3~------------2-3-5-2-3---3~--|
|-2-----4-5--/7\--235-----5--53-532~--------------2-3-5-----------5-----|


|----------------------------------------------------------------|
|----------------------------------------------------------------|
|---------------------------------------ph-----------------------|
|---------------------------------------4-ph---------------------|
|-4-----6-7----------23532-32--2----------3~--4---5--------------|
|-2-----4-5--/7\--235-----5--53-532~----------2---3----------/9\-|



Repeat part - 0:41

Repeat part - 0:52

Repeat part - 0:11



1:54
|---------------------------|
|---------------------------|
|---------------------------|
|---------------------------|
|---------------2---3---5---|
|-222---3---5---------------|



Repeat part - 1:03

Repeat part - 0:41

Repeat part - 0:52

Repeat part - 0:11



2:46
|----|
|----|
|----|
|----|
|-2--|
|--5-|


|-----------------------------------------------------------------|
|-----------------------------------------------------------------|
|---------------9---7---4---5-----4-------------------------------|
|---------------5---4---3---3-----2-------------------------5-----|
|-----------------------------------------------4---5---4---3-----|
|-0-0-0-0-0-0-0---0---0---0---0-0-----0-0-0-0-0-2---3---5---------|
  . . . . . . .   .   .   .   . .     . . . . .


|-----------------------------------------------------------------|
|-----------------------------------------------------------------|
|---------------9---7---4---5-----4-------------------------------|
|-9-------------5---4---3---3-----2-------------------------5-----|
|-7---------------------------------------------4---5---4---3-----|
|-----0-0-0-0-0---0---0---0---0-0-----0-0-0-0-0-2---3---5---------|
      . . . . .   .   .   .   . .     . . . . .


|-----------------------------------------------------------------|
|-----------------------------------------------------------------|
|--------------------------------------------------10--9---8---7--|
|/9-------10------11------12--12---9-----9---------8---7---6---5--|
|/7-------8-------9-------10--10---7-----7---------6---5---4---3--|
|---000000--000000--000000-----------000---0-0-0-0---0---0---0----|
    ......  ......  ......           ...   . . . .   .   .   .


|------------------------------------|
|------------------------------------|
|-------------------------11109------|
|-9-------10------11\-----9-8-7------|
|-7-------8-------9-\-----7-6-5------|
|---000000--000000-------------------|
    ......  ......


3:06 (under solo)
|-----------------------------------------------------------------|
|-----------------------------------------------------------------|
|---------------9---7---4---5-----4-------------------------------|
|-9-------------5---4---3---3-----2-------------------------5-----|
|-7---------------------------------------------4---5---4---3-----|
|-----0-0-0-0-0---0---0---0---0-0-----0-0-0-0-0-2---3---5---------|  x2
      . . . . .   .   .   .   . .     . . . . .


3:16
 let ring......|                                 let ring
|-------------------------------------------------------------|
|-------------------------------------------------------------|
|-----8-------------------------------------------------8-----|
|---6-----------------------------6-----------6---------9-----|
|-4-----------4-------------------4-4-4-2-2-2-4-----7---------|
|-------7---------3333333333333-------------------0---7-------|
                  ............      . . . . .


 let ring......|
|-------------------------------------------------|
|-------------------------------------------------|
|-----8-------------------------------------------|
|---6-----------------------------6-----------6---|
|-4-----------4-------------------4-4-4-2-2-2-4---|
|-------7---------3333333333333-------------------|
                  ............      . . . . .



Repeat part - 3:06 (Under solo)  x2



3:36 (Under solo)
|------------------------------------------------------------------|
|------------------------------------------------------------------|
|------------------------------------------------------------------|
|---------------------------------------------5555444477776--------|
|---------5555555544444444------------55554444----------------7----|
|-22222222----------------111111112222-----------------------------|
  ........................................................


|------------------------------------------------------------------|
|------------------------------------------------------------------|
|------------------------------------------------------------------|
|---------------------------------------------555544447---6--------|
|---------5555555544444444------------55554444----------------7----|
|-22222222----------------111111112222-----------------------------|
  ....................................................



Repeat part - 3:06 (Under solo)  x2



3:58 (Under solo)
|-----------------------------------------------------------------|
|-----------------------------------------------------------------|
|--------------------------------------------------10--9---8---7--|
|-9-------10------11------12--12---9-----9---------8---7---6---5--|
|-7-------8-------9-------10--10---7-----7---------6---5---4---3--|
|---000000--000000--000000-----------000---0-0-0-0---0---0---0----|
    ......  ......  ......           ...   . . . .   .   .   .


|--------------------------------------------------------------------------|
|--------------------------------------------------------------------------|
|-------------------------11109-------7-8-9-------9-8-7-------5-6-7--------|
|-9-------10------11------9-8-7-------5-6-7-------7-6-5-------3-4-5--------|
|-7-------8-------9-------7-6-5-------3-4-5-------5-4-3-------1-2-3--------|
|---000000--000000--000000-------------------------------------------------|
    ......  ......


4:10 (Under solo)
|-----------------------------------------------------------------|
|-----------------------------------------------------------------|
|-----------------------------------------------------------------|
|---------9-------8-------7---------------9-------8-------7-------|
|-4-------8-------7-------6-------4-------8-------7-------6-------|
|-3---0-------0-------0-------5---3---0-------0-------0-------5---|


                                                          let ring
|-----------------------------------------------------------------|
|-----------------------------------------------------------------|
|-----------------------------------------------------------------|
|---------9-------8-------7---------------9-------8-------7-------|
|-4-------8-------7-------6-------4-------8-------7-------6-------|
|-3-000000--000000--000000----5---3-000000--000000--000000----5---|
    ......  ......  ......          ......  ......  ......


...let ring...            let ring
|-----------------------------------------------|
|-----------------------------------------------|
|-----------------------------------------------|
|-------------------------4-------------------3-|
|-------------------------3-------------------2-|
|-----------------------------2---------------1-|



END

  Visit MetalTabs.com for more metal tablature

bottom separator

Contact Us | Privacy Policy | Disclaimer | Legal Notice
Copyright © 2001-2014 MetalTabs.com. All Rights Reserved.