top separator

Home

Forum

What's New

Submit a Tab

FAQ

Links

Contact Us

Link to Us

MuSpy.com

MetalTabs.com logo

Bands

0-9

A

B

C

D

E

F

G

H

I

J

K

L

M

N

O

P

Q

R

S

T

U

V

W

X

Y

Z

Search

What

Where
 

Forest of Impaled - "I Metamorphosis (Birth Of The Seventh)" Guitar Tab

Plain Text Version
More Forest of Impaled Tabs

Hits: 1547
Updated: 2007-06-24 23:33:51

 

By:

goatman

sendpm.gif

email.gif

Important note
This tab is available online because we obtained explicit permission from Forest of Impaled or their label.


#----------------------------------PLEASE NOTE---------------------------------#
#This file is the author's own work and represents their interpretation of the #
#song. You may only use this file for private study, scholarship, or research. #
#Unless specified otherwise, this is NOT an official tab from the band members.#
#------------------------------------------------------------------------------#

  Visit MetalTabs.com for more metal tablature
  
Band:  (FOREST OF IMPALED)
Album: (DEMONVOID)
Song:  (I METAMORPHOSIS(BIRTH OF THE SEVENTH))

Copyright (c)  (RED STREAM INC.) (1999)


Transcribed By: (GOATMAN)
Email:          (VIRUS010891@AOL.COM)


.  - palm mute         () - ghost note, sustained note
"  - tremolo note

Tuning Db standard
                          x16(first 4 times-one guitar)
|--------------------------|-----------------------------------------
|.------------------------.|.----------------------------------------
|--------5-------5-----7"--|--9"--------------9"10"(12)"-9"----------
|--------7-------7-----9"--|--7"--------------7"-8"(10)"-7"----------
|.-0-0-0---0-0-0---0-0----.|.---00000000000000-------------0000000000
|--------------------------|-----------------------------------------
   . . .   . . .   . .          ..............             ..........
                                                                      x2
-----------------------------------------------------------------------|
----------------------------------------------------------------------.|
--------9"10"(12)"-9"------------------9"10"(12)"-9"-------------(10)"-|
--------7"-8"(10)"-7"------------------7"-8"(10)"-7"--------------(8)"-|
0000-----------------00000000000000-----------------00000000000000----.|
-----------------------------------------------------------------------|
....                 ..............                 ..............
                                                                  x4
|------------------------------------------------------------------|
|.----------------------------------------------------------------.|
|---------------------------------------------------(10)"----------|
|----------------------------------------------------(8)"----------|
|.-0-0-0-0-0-0-00-0-0-0-0-00-0-00-0-0-0-0-0-0-0-00-0--------------.|
|------------------------------------------------------------------|
  . . . . . . .. . . . . .. . .. . . . . . . . .. .

------------------------------------------------------------------------
------------------------------------------------------------------------
-9"--------------9"10"(12)"-9"--------------9"10"(12)"-9"---------------
-7"--------------7"-8"(10)"-7"--------------7"-8"(10)"-7"---------------
---00000000000000-------------00000000000000-------------00000000000000-
------------------------------------------------------------------------
   ..............             ..............             ..............

-------------------------------|----------------------------------------------
-------------------------------|.---------------------------------------------
9"10"(12)"-9"-------------(10)"|-------5---------------5---------------5------
7"-8"(10)"-7"--------------(8)"|-------7-------7-------7-------8-------7------
-------------00000000000000----|.0-0-0---0-0-0---0-0-0---0-0-0---0-0-0---0-0-0
-------------------------------|----------------------------------------------
              ..............       . . .   . . .   . . .   . . .   . . .   . . .
                 x6(first time-single guitar)                                 x4
------------------|------------------------------------------------------------|
-----------------.|.----------------------------------------------------------.|
---------5---7/8--|-----------------------------------------------------(10)"--|
-7-------7---7/8--|------------------------------------------------------(8)"--|
---0-0-0---0-----.|.-0-0-0-0-0-0-00-0-0-0-0-0-00-0-00-0-0-0-0-0-0-0-00-0------.|
------------------|------------------------------------------------------------|
   . . .   .         . . . . . . .. . . . . . .. . .. . . . . . . . .. .
                                                        x4
|--------------------------------------------------------|-------
|.------------------------------------------------------.|-------
|--9--------------10------10--10---9--------------(10)"--|-------
|--7---------------8-------8---8---7---------------(8)"--|-------
|.--00000000000000--000000--00--00--00000000000000------.|-0\slow whammy dive
|--------------------------------------------------------|----\-
    ..............  ......  ..  ..  ..............

  Visit MetalTabs.com for more metal tablature

bottom separator

Contact Us | Privacy Policy | Disclaimer | Legal Notice
Copyright © 2001-2014 MetalTabs.com. All Rights Reserved.