top separator

Home

Forum

What's New

Submit a Tab

FAQ

Links

Contact Us

Link to Us

MuSpy.com

MetalTabs.com logo

Bands

0-9

A

B

C

D

E

F

G

H

I

J

K

L

M

N

O

P

Q

R

S

T

U

V

W

X

Y

Z

Search

What

Where
 

Soulfly - "Eye For An Eye" Guitar Tab

Plain Text Version
More Soulfly Tabs

Hits: 5471
Rated: 3.00 out of 5 (6 votes)
Updated: 2001-06-19 12:58:34

 

Important note
This tab is available online because we obtained explicit permission from Soulfly or their label.


#----------------------------------PLEASE NOTE---------------------------------#
#This file is the author's own work and represents their interpretation of the #
#song. You may only use this file for private study, scholarship, or research. #
#Unless specified otherwise, this is NOT an official tab from the band members.#
#------------------------------------------------------------------------------#

  Visit MetalTabs.com for more metal tablature
  
	     SONG: Eye For An Eye
	     BAND: Soulfly
	    ALBUM: Soulfly
   TRANSCRIBED BY: Nick Biondo (MetlSlp@aol.com)

	TUNING: tune as follows (G-D-G-C-E-A)


     INTRO/VERSE:

    A|-----------------------------------------------------------------|
    E|-----------------------------------------------------------------|
    C|-----------------------------------------------------------------|
    G|-----------------------------------------------------------------|
    D|-----------------------------------------------------------------|
    G|-6-0-0-0-0-0-6--6-0-0-0-0-0-6--6-0-0-0-0-0-6--6-6-6-6-6-6-6-6----|

     CHORUS:

    A|-------------------------------|
    E|-------------------------------|
    C|-------------------------------|
    G|-------------------------------|
    D|-4-6-6--7-6-6--7-6-6--7-6-6----|
    G|-4-6-6--7-6-6--7-6-6--7-6-6----|

     POST-CHORUS:

    A|-----------------------------------|
    E|-----------------------------------|
    C|-----------------------------------|
    G|-----------------------------------|
    D|-----------------------------------|
    G|-4-6-6-6-7-6-6-6-7-6-6-6-7-6-6-6---|

     SOLO: (w/ whammy)

    A|-14trem.--------------16--14h16---16trem.---|
    E|--------------------------------------------|
    C|--------------------------------------------|
    G|--------------------------------------------|
    D|--------------------------------------------|
    G|--------------------------------------------|

     INTERLUDE: (w/ flanger)

    A|----------------------------------------------------------------------|
    E|- 7/9-9--9/10-10--10/12-12-12--12/10-10-10--10/9-9-9--9/7-7-7-6--6-6/--|
    C|----------------------------------------------------------------------|
    G|----------------------------------------------------------------------|
    D|----------------------------------------------------------------------|
    G|----------------------------------------------------------------------|

     OUTRO:

    A|-------------------------------------------------------------------------|
    E|-7/9-9--9/10-10--10/12-12-12--12/10-10-10--10/9-9-9--9/7-7-7--7/6--6-6/--|
    C|-------------------------------------------------------------------------|
    G|-------------------------------------------------------------------------|
    D|-------------------------------------------------------------------------|
    G|-4/6-6--6/7---7---7/9---9--9---9/7---7--7---7/6-6-6--6/4-4-4--4/3--3-3/--|

     FINAL PART:

    A|-------------------------------------|
    E|-------------------------------------|
    C|-------------------------------------|
    G|-------------------------------------|
    D|-4-6-6--4-6-6--4-6-6--4-6-6\4\3\2\1--|
    G|-4-6-6--4-6-6--4-6-6--4-6-6\4\3\2\1--|


  Visit MetalTabs.com for more metal tablature

bottom separator

Contact Us | Privacy Policy | Disclaimer | Legal Notice
Copyright © 2001-2014 MetalTabs.com. All Rights Reserved.