top separator

Home

Forum

What's New

Submit a Tab

FAQ

Links

Contact Us

Link to Us

MetalTabs.com logo

Bands

0-9

A

B

C

D

E

F

G

H

I

J

K

L

M

N

O

P

Q

R

S

T

U

V

W

X

Y

Z

Search

What

Where
 

Destruction - "Total Desaster" Guitar Tab

Plain Text Version
More Destruction Tabs

Hits: 2521
Updated: 2006-10-29 06:14:31

 

By:

Dahmers Fridge

sendpm.gif

email.gif

Important note
This tab is available online because we obtained explicit permission from Destruction or their label.


#----------------------------------PLEASE NOTE---------------------------------#
#This file is the author's own work and represents their interpretation of the #
#song. You may only use this file for private study, scholarship, or research. #
#Unless specified otherwise, this is NOT an official tab from the band members.#
#------------------------------------------------------------------------------#

  Visit MetalTabs.com for more metal tablature
  
Band:  Destruction
Album: Bestial Invasion From Hell(demo)
Song:  Total Desaster(demo)

Copyright (c)  (RECORD LABEL) (1984)
Version 1.0 - (20/09/06)

Transcribed By: Steve
Email:          stephen.elvidge1@ntlworld.com


.  - palm mute           /  - slide up to
\  - slide down to       ~  - vibrato
h  - hammer on           b  - Bend
p  - pull off            Suffixes for bend
t  - tap                 f  - full bend    h - half bend
ph - pinched harmonic    q  - quarter bend t - tap bend
*  - see comment         ^  - Hold bend    r release bend
x  - Stuccatto           ~  - vibrato bend
,  - slight palm mute    () - ghost note, sustained note
"  - tremolo note        <> - harmonic
pb - pre bend

Tuning E A D G B E


    [-PM-]           [-PM-]
|---------------------------------|
|---------------------------------|
|---------------------------------|
|-9----------------9-------7/1010-|
|-7-------10101010-7-------5/8-8--|
|---0-0-0-8-8-8-8----0-0-0--------| Rpt 8 X

 Guitar 1
[---------------------------------|
[---------------------------------|
[---------------------------------|
[-9---9---5-4---------------------|
[-7---7-------5-2---------2-------|
[---x---x-------0-00-0-00-0-0000--|
[Guitar 2
[---------------------------------|
[---------------------------------|
[---------------------------------|
[-5---4-----5-7-------------------|
[-3---2--5--3-5-----------2-------|
[--------3------0-00-0-00-0-0000--|

|------------------------------|
|------------------------------|
|------------------------------|
|-5---4-----5-7-9------9-------|
|-3---2--5--3-5-7------7-------|
|--------3------0-0000---0000--| Rpt 3 X


 Guitar 1               pick scrape
[------------------------------|
[------------------------------|
[------------------------------|
[-5---4----------4-5-4---------|
[-3---2--5--3-5--2-3-2---------|
[--------3-------------3\-\----|
[Guitar 2
[------------------------------|
[------------------------------|
[------------------------------|
[-5---4-----5-7--4-5-4---------|
[-3---2--5--3-5--2-3-2-5\4\----|
[--------3-------------3\2\----|

 Rpt Verse



   [PM] [PM]        [PM] [PM]           [PM] [PM]
|------------------------------------------------------|
|------------------------------------------------------|
|------------------------------------------------------|
|-9----9----9/1010-9----9----12\109/10-9----9----7/9---|
|-7----7----7/8-8--7----7----10\8-7/8--7----7----5/7---|
|---00---00----------00---00-------------00---00-------|

  [PM] [PM]        [PM] [PM]           [PM]
|------------------------------------------------------|
|------------------------------------------------------|
|------------------------------------------------------|
|-9----9----9/1010-9----9----12\109/10-7----7----7/9---|
|-7----7----7/8-8--7----7----10\8-7/8--5-55-5----5/7---|
|---00---00----------00---00---------------------------|

 Rpt Main Riff 4 X

   [PM] [PM]        [PM] [PM]           [PM] [PM]
|------------------------------------------------------|
|------------------------------------------------------|
|------------------------------------------------------|
|-9----9----9/1010-9----9----12\109/10-9----9----7/9---|
|-7----7----7/8-8--7----7----10\8-7/8--7----7----5/7---|
|---00---00----------00---00-------------00---00-------|

  [PM] [PM]        [PM] [PM]           [PM]
|------------------------------------------------------|
|------------------------------------------------------|
|------------------------------------------------------|
|-9----9----9/1010-9----9----12\109/10-7----7----7/9---|
|-7----7----7/8-8--7----7----10\8-7/8--5-55-5----5/7---|
|---00---00----------00---00---------------------------|


   [PM] [PM]         [PM] [PM]
|-------------------------------------|
|-------------------------------------|
|-------------------------------------|
|-4----4----4/5--5--4----4------------|
|-2-22-2-22-2/3--3--2-22-2-22---------|
|-----------------------------2-3-5p0-|

  [PM] [PM]       [PM] [PM]
|-------------------------------|
|-------------------------------|
|-------------------------------|
|-5----5----4--5-5----5----4--5-|
|-3-33-3-33------3-33-3-33------|
|-------------------------------|

  [PM] [PM]         [PM] [PM]
|-------------------------------------|
|-------------------------------------|
|-------------------------------------|
|-4----4----4/5--5--4----4------------|
|-2-22-2-22-2/3--3--2-22-2-22---------|
|-----------------------------2-3-5p0-| Rpt 3 X

  [PM] [PM]       [PM] [PM]
|-------------------------------|
|-------------------------------|
|-------------------------------|
|-5----5----4--5-5----5----4--5-|
|-3-33-3-33------3-33-3-33------|
|-------------------------------|

  [PM] [PM]         [PM] [PM]
|-------------------------------------|
|-------------------------------------|
|-------------------------------------|
|-4----4----4/5--5--4----4------------|
|-2-22-2-22-2/3--3--2-22-2-22---------|
|-----------------------------2-3-5p0-|

   [PM] [PM] [PM]     [PM] [PM] [PM]     [PM] [PM]  [PM]
|-----------------------------------------------------------|
|-----------------------------------------------------------|
|-----------------------------------------------------------|
|-9----9----9----9-9\5----5----5----5-5/7----7----7----7-7--|
|-7-77-7-77-7-77-7-7\3-33-3-33-3-33-3-3/5-55-5-55-5-55-5-5--|
|-----------------------------------------------------------|

[   PM] [PM]
|------------------|
|------------------|
|------------------|
|-9----9------5\4--|
|-7-77-7-77-5-3\2--|
|-----------3------|

 Rpt Above


   [PM] [PM]         [PM] [PM]
|-------------------------------------|
|-------------------------------------|
|-------------------------------------|
|-4----4----4/5--5--4----4------------|
|-2-22-2-22-2/3--3--2-22-2-22---------|
|-----------------------------2-3-5p0-| Rpt


  [PM] [PM]       [PM] [PM]
|-------------------------------|
|-------------------------------|
|-------------------------------|
|-5----5----4--5-5----5----4--5-|
|-3-33-3-33------3-33-3-33------|
|-------------------------------|

  [PM] [PM]         [PM] [PM]
|-------------------------------------|
|-------------------------------------|
|-------------------------------------|
|-4----4----4/5--5--4----4------------|
|-2-22-2-22-2/3--3--2-22-2-22---------|
|-----------------------------2-3-5p0-| Rpt 3 X

  [PM] [PM]       [PM] [PM]
|-------------------------------|
|-------------------------------|
|-------------------------------|
|-5----5----4--5-5----5----4--5-|
|-3-33-3-33------3-33-3-33------|
|-------------------------------|


  [PM] [PM]         [PM] [PM]
|-------------------------------------|
|-------------------------------------|
|-------------------------------------|
|-4----4----4/5--5--4----4------------|
|-2-22-2-22-2/3--3--2-22-2-22---------|
|-----------------------------2-3-5p0-|

 Backing for solo

[PM] [PM] [PM]     [PM] [PM] [PM]     [PM] [PM]  [PM]
|-----------------------------------------------------------|
|-----------------------------------------------------------|
|-----------------------------------------------------------|
|-9----9----9----9-9\5----5----5----5-5/7----7----7----7-7--|
|-7-77-7-77-7-77-7-7\3-33-3-33-3-33-3-3/5-55-5-55-5-55-5-5--|
|-----------------------------------------------------------|

[   PM] [PM]
|------------------|
|------------------|
|------------------|
|-9----9------5\4--|
|-7-77-7-77-5-3\2--|
|-----------3------|

 Rpt above 4 X

 Rpt Verse
 Rpt Main Riff



|-------------------------------------------------------------------|
|-------------------------------------------------------------------|
|-------------------------------------------------------------------|
|-9-9-9-9/1010-9-9-9-9-9-9-9-9-9-9-9-9---------9---------(9)--------|
|-7-7-7-7/8-8--7-7-7-7-7-7-7-7-7-7-7-7---------7---------(7)--------|
|-------------------------------------------------------------------|

|-------------------------------------|
|-------------------------------------|
|-------------------------------------|
|-9\----------ad lib noise------------|
|-7\----------------------------------|
|-------------------------------------|






END

  Visit MetalTabs.com for more metal tablature

bottom separator

Contact Us | Privacy Policy | Disclaimer | Legal Notice
Copyright © 2001-2014 MetalTabs.com. All Rights Reserved.