top separator

Home

Forum

What's New

Submit a Tab

FAQ

Links

Contact Us

Link to Us

MuSpy.com

MetalTabs.com logo

Bands

0-9

A

B

C

D

E

F

G

H

I

J

K

L

M

N

O

P

Q

R

S

T

U

V

W

X

Y

Z

Search

What

Where
 

Destruction - "Frontbeast" Guitar Tab

Plain Text Version
More Destruction Tabs

Hits: 2100
Updated: 2006-09-06 23:50:42

 

By:

Dahmers Fridge

sendpm.gif

email.gif

Important note
This tab is available online because we obtained explicit permission from Destruction or their label.


#----------------------------------PLEASE NOTE---------------------------------#
#This file is the author's own work and represents their interpretation of the #
#song. You may only use this file for private study, scholarship, or research. #
#Unless specified otherwise, this is NOT an official tab from the band members.#
#------------------------------------------------------------------------------#

  Visit MetalTabs.com for more metal tablature
  
Band:  Destruction
Album: Bestial Invasion From Hell(demo)
Song:  Frontbeast(demo)

Copyright (c)  (RECORD LABEL) (1984)
Version 1.0 - (02/09/06)

Transcribed By: Steve
Email:          stephen.elvidge1@ntlworld.com


.  - palm mute           /  - slide up to
\  - slide down to       ~  - vibrato
h  - hammer on           b  - Bend
p  - pull off            Suffixes for bend
t  - tap                 f  - full bend    h - half bend
ph - pinched harmonic    q  - quarter bend t - tap bend
*  - see comment         ^  - Hold bend    r release bend
x  - Stuccatto           ~  - vibrato bend
,  - slight palm mute    () - ghost note, sustained note
"  - tremolo note        <> - harmonic
pb - pre bend

Tuning E A D G B E



 Intro

|-------------------------|
|-------------------------|
|------7-9p7-----9p7-9p7--|
|-9-9--------9p7----------|
|-7-7---------------------|
|-------------------------| Rpt 2 X


|---------------------------|
|---------------------------|
|------7-9p7-----9p7-9p7p0--|
|-9-9--------9p7------------|
|-7-7-----------------------|
|---------------------------|

|------------|
|------------|
|------------|
|-5-5-/1010--|
|-3-3-/8-8---|
|------------|

 Rpt above

 Main Riff

  [----PM---]    [----PM---]  [----PM---]             h       h   h
|----------------------------------------------------------------------|
|----------------------------------------------------------------------|
|---------------------------------------------------7-9p7-----9p7-9p7--|
|------------/5---------------------------5-9-9-9-9-------9p7----------|
|-2----------/3-2-----------3-------------3-7-7-7-7--------------------|
|-0-000-3p1p0---0-000-3p1p0-1-0-000-3p1p0------------------------------|

 Rpt 5 X

 Riff B
            h   h   h         h   h
|---------------------------------------------|
|---------------------------------------------|
|---------0-2p0---------------------------5---|
|-2-2-2-2-------2p0-2p0---2-2-2p0-2p0-----5---|
|-0-0-0-0---------------3-0-0---------0-0-----|
|---------------------------------------------| Rpt 4 X

 [---PM--]  PM  [---PM--] PM
|----------------------------------|
|----------------------------------|
|----------------------------------|
|---------3---3----------5---4/5/6-|
|---------1---1----------3-5-2/3/4-|
|-0-0-0-0-1-0-1--0-0-0-0---3-------|

 [---PM--]    PM  [---PM--] PM
|-------------------------------------|
|-------------------------------------|
|-------------------------------------|
|---------3-----3----------5---4/5/6--|
|---------1p0-0-1----------3-5-2/3/4--|
|-0-0-0-0----------0-0-0-0---3--------| Rpt 2 X

 [---PM--]    PM  [---PM--]
|-----------------------------------|
|-----------------------------------|
|-----------------------------------|
|---------3-----3----------5---7-6--|
|---------1p0-0-1----------3-5------|
|-0-0-0-0----------0-0-0-0---3------|

            h   h   h
|-----------------------------------------|
|-----------------------------------------|
|---------0-2p0---------------5-3-----5---|
|-2-2-2-2-------2p0-2p0---2-2-5-3-----5---|
|-0-0-0-0---------------3-0-0-----0-0-----|
|-----------------------------------------|

            h   h   h
|-----------------------------------------|
|-----------------------------------------|
|---------0-2p0---------------3-3---5-5---|
|-2-2-2-2-------2p0-2p0---2-2-3-3---5-5---|
|-0-0-0-0---------------3-0-0-----0-------|
|-----------------------------------------| Rpt 3 X


 Guitar solo

  h   h   h   h   h   h   h   h   h   h   h        h   h   h
|---------------------------------------------------------------|
|---------------------------------------------------------------|
|-2p0-2p0-2p0-2p0-2p0-2p0-2p0-2p0-2p0-2p0-2p0-2b---2p0-2p0------|
|----------------------------------------------------------2p0--|
|---------------------------------------------------------------|
|---------------------------------------------------------------|

  h   h   h          ~~~~~                        ~~~~~
|------------------------------------------------------------------|
|----------------8---------8---10-10b-r10p8-----8-------8---8b--8--|
|-2p0-2p0-2p0-/9---9--9------9--------------9-9---9---9---9--------|
|------------------------------------------------------------------|
|------------------------------------------------------------------|
|------------------------------------------------------------------|

          ~~~~~~
|--------------------|
|--------------------|
|-9-7-7fb------r-----|
|--------------------|
|--------------------|
|--------------------|


 Backing for solo


 [---PM--]    PM  [---PM--] PM
|-------------------------------------|
|-------------------------------------|
|-------------------------------------|
|---------3-----3----------5---4/5/6--|
|---------1p0-0-1----------3-5-2/3/4--|
|-0-0-0-0----------0-0-0-0---3--------| Rpt 4 X

 [---PM--]    PM  [---PM--] PM
|-------------------------------------|
|-------------------------------------|
|-------------------------------------|
|---------3-----3----------5---4/5/6--|
|---------1p0-0-1----------3-5-2/3/4--|
|-0-0-0-0----------0-0-0-0---3--------| Rpt 4 X



 Rpt Main Riff 2 X
 Rpt Intro


|-------------------------|
|-------------------------|
|------7-9p7-----9p7-9p7--|
|-9-9--------9p7----------|
|-7-7---------------------|
|-------------------------| Rpt 2 X

 Guitar 1
[--------------------------------|
[--------------------------------|
[------7-9p7-----9p7-9p7-trill---|
[-9-9--------9p7-----------------|
[-7-7----------------------------|
[--------------------------------|
[Guitar 2
[--------------------------------|
[--------------------------------|
[------7-9p7-----9p7-9p7-9fb-----|
[-9-9--------9p7-----------------|
[-7-7----------------------------|
[--------------------------------|

 Ad lib guitar noise, pick scrapes etc

|------------|
|------------|
|------------|
|-9----\-----|
|-7----\-----|
|------------|




END

  Visit MetalTabs.com for more metal tablature

bottom separator

Contact Us | Privacy Policy | Disclaimer | Legal Notice
Copyright © 2001-2014 MetalTabs.com. All Rights Reserved.