top separator

Home

Forum

What's New

Submit a Tab

FAQ

Links

Contact Us

Link to Us

MuSpy.com

MetalTabs.com logo

Bands

0-9

A

B

C

D

E

F

G

H

I

J

K

L

M

N

O

P

Q

R

S

T

U

V

W

X

Y

Z

Search

What

Where
 

Magog (SE) - "Follow Me..." Guitar Tab

Plain Text Version
More Magog (SE) Tabs

Hits: 2351
Rated: 4.60 out of 5 (5 votes)
Updated: 2005-12-30 00:48:52

 

By:

sqol

sendpm.gif

email.gif

Important note
This tab is available online because we obtained explicit permission from Magog (SE) or their label.


#----------------------------------PLEASE NOTE---------------------------------#
#This file is the author's own work and represents their interpretation of the #
#song. You may only use this file for private study, scholarship, or research. #
#Unless specified otherwise, this is NOT an official tab from the band members.#
#------------------------------------------------------------------------------#

  Visit MetalTabs.com for more metal tablature
  
Band:  Magog (sweden)
Album: Promo 2004
Song:  Follow Me...

Transcribed By: sqol/Oli
Email:          oli ( at ) dijit ( dot ) net

.  - palm mute           /  - slide up to
\  - slide down to       ~  - vibrato
h  - hammer on           b  - Bend
p  - pull off            Suffixes for bend
t  - tap                 f  - full bend    h - half bend
ph - pinched harmonic    q  - quarter bend t - tap bend
*  - see comment         ^  - Hold bend    r release bend
x  - Stuccatto           ~  - vibrato bend
,  - slight palm mute    () - ghost note, sustained note
"  - tremolo note        <> - Trill

Tuning DGCFAd

Acoustic intro
|-----------------2h3-------------------------------------------------|
|----4h5------------------------4h5----------3-----3-----3-----3------|
|---x----5--------x---5---------x---5----------5-----5-----5-----5----|
|--2-------5-----2------5------2------5----------5-----5-----5-----5--|
|--2---------2---2--------2----2--------2-----------------------------|
|--0----------0--0----------0--0----------0---------------------------|
                                             |increase volume.......|

Dist. Electric, with bass and drums
|----------------2h3----------------------------|
|-----4h5-------------------4h5-----------------|
|---------4h5--------4h5--------4h5---5--5--5---| *repeat x8
|--.-----------.----------.-----------5--5--5---|
|--2-----------2----------2-----------3--3--3---|
|--0-----------0----------0---------------------|
   x           x          x

|-----| |--"--"--"--"--"--"---"--"---------------"--"--"--"--"------|
|-----| |--4--5--8--7--5--4---4--5--"--"--"------4--5--8--7--5\-----|
|-----| |---------------------------5--4--3--"----------------------|
|--2--| |------------------------------------5-------------------2--|
|--2--| |--------------------------------------------------------2--|
|--0--| |--------------------------------------------------------0--|


|--"--"--"--"--"--"---"--"--------------|
|--4--5--8--7--5--4---4--5--"--"--"-----|
|---------------------------5--4--3--"--| *repeat x6
|------------------------------------5--|
|---------------------------------------|
|---------------------------------------|


|---------------------------------------|
|--4--5--8--7--5--4---4--5--------------|
|---------------------------5--4--3-----| *repeat x4
|------------------------------------5--|
|---------------------------------------|
|---------------------------------------|


|----(333333)---(333333)---(333333)---(333333)-|
|----(333333)---(333333)---(333333)---(333333)-|
|-----555555-----555555-----555555-----555555--|
|--2--555555--2--555555--2--555555--2--555555--|
|--2--333333--2--333333--2--333333--2--333333--|
|--0----------0----------0----------0----------|


|-----------------------------------------------------------------------|
|-----4-h5-/8--7-\5-----4-h5------------4-h5-/8--7-\5-----4-h5----------|
|-----------------------------5--4-\3-----------------------------------|
|--2-------------------------------------------------------------3-3-3--|
|--2-------------------------------------------------------------3-3-3--|
|--0-------------------------------------------------------------1-1-1--|
                                                                 x x x

|----(333333)---(333333)---(333333)---(333333)-|
|----(333333)---(333333)---(333333)---(333333)-|
|-----555555-----555555-----555555-----555555--|
|--2--555555--2--555555--2--555555--2--555555--|
|--2--333333--2--333333--2--333333--2--333333--|
|--0----------0----------0----------0----------|


|----------------------------------------------------------------|
|---------888888---------333333---------888888---------3-(3)(3)--|
|------------------------555555---------------------------5-(5)--| *repeat x4
|--2-222----------2-222--555555--2-222----------2-222--------5---|
|--2-222----------2-222--333333--2-222----------2-222------------|
|--0-000----------0-000----------0-000----------0-000------------|

|-----------------------------|      |--------|
|-----------------------------|      |--------|
|--4------3------4------5555--| end  |--5555--|
|--2------1------2------3333--| with |--3333--|
|-----------------------------|      |--------|
|----0000---0000---0000-------|      |--------|

         "
|--"--"--5--"--"--"--"--------------------|
|--5--8-----8--7--5--7--"-----------------|
|-----------------------5--4--"--"--"--"--| *repeat x4
|-----------------------------5--4--2--1--|
|-----------------------------------------|
|-----------------------------------------|

         "                       "     "
|--"--"--5--"--"--"--"--|--"--"--5--"--5--"--"--|
|--5--8-----8--7--3--5--|--5--8-----8-----7--5--|
|-----------------------|-----------------------|
|-----------------------|-----------------------|
|-----------------------|-----------------------|
|-----------------------|-----------------------| *repeat x2
                        |        "     "        |
                        |--"--"--5--"--5--"--"--|
                        |--5--8-----8-----7--8--|
                        |-----------------------|
                        |-----------------------|
                        |-----------------------|
                        |-----------------------|

|-----------------------------------------------|
|-----------------------------------------------|
|-------555----9----777---------------777-------|
|--2----555----9----777----2----------777----2--|
|--2----333----7----555----2----------555----2--|
|--0-----------0-----------0-----------------0--|

|--------"--"-------------"--"---"-*--|
|------"-5-/7-"---------"-5-/7-"-8-7--| *sometimes there is a slide 8/10
|--"--"4------7-"---"--"4------7------|
|--2-/5---------4---2-/5--------------|
|-------------------------------------|
|-------------------------------------|

|----------------2h3----------------------|
|-----4h5-------------------4h5-----------|
|---------4h5--------4h5--------4h5---55--|
|--.-----------.----------.-----------55--|
|--2-----------2----------2-----------33--|
|--0-----------0----------0---------------|
   x           x          x

END

  Visit MetalTabs.com for more metal tablature

bottom separator

Contact Us | Privacy Policy | Disclaimer | Legal Notice
Copyright © 2001-2014 MetalTabs.com. All Rights Reserved.