top separator

Home

Forum

What's New

Submit a Tab

FAQ

Links

Contact Us

Link to Us

MuSpy.com

MetalTabs.com logo

Bands

0-9

A

B

C

D

E

F

G

H

I

J

K

L

M

N

O

P

Q

R

S

T

U

V

W

X

Y

Z

Search

What

Where
 

Cadaveria - "Out Body Experience" Guitar Tab

Plain Text Version
More Cadaveria Tabs

Hits: 1844
Updated: 2005-10-29 03:39:22

 

By:

Tjaial

sendpm.gif

email.gif

Important note
This tab is available online because we obtained explicit permission from Cadaveria or their label.


#----------------------------------PLEASE NOTE---------------------------------#
#This file is the author's own work and represents their interpretation of the #
#song. You may only use this file for private study, scholarship, or research. #
#Unless specified otherwise, this is NOT an official tab from the band members.#
#------------------------------------------------------------------------------#

  Visit MetalTabs.com for more metal tablature
  
Band:  Cadaveria
Album: Far Away From Conformity
Song:  Out Body Experience
Version 1.0 - 25-10-05

Transcribed By: Tjaial
Email:          Tjaial@aol.com
Copyright (c)   Scarlet Records

.  - palm mute           /  - slide up to
\  - slide down to       ~  - vibrato
h  - hammer on           b  - Bend
p  - pull off            Suffixes for bend
t  - tap                 f  - full bend    h - half bend
ph - pinched harmonic    q  - quarter bend t - tap bend
*  - see comment         ^  - Hold bend    r release bend
x  - Stuccatto           ~  - vibrato bend
,  - slight palm mute    () - ghost note, sustained note
"  - tremolo note        <> - Trill

Tuning B E A D F# B or use a 7 string

listen to the song for timing and order of riffs

Intro
|----------------------------------------------------------|
|----------------------------------------------------------|
|----------------------------------------------------------|
|--------------------------------------------6/7-7--6/7-7--|
|-4444444-222-777-444444-444444-222-777-444--4/5-5--4/5-5--|

|-2222222-000-555-222222-222222-000-555-222----------------|
  ....... ... ... ...... ...... ... ... ...

Riff 1
|---------------------------------------------------------|
|---------------------------------------------------------|
|-------------------------------------------6-7-7--7-6-6--|
|-444444-777777--7\4-4-4p2-2--444444-777777-4-4-4--4-4-4--|
|-222222-555555--5\2-2-2p0-0--222222-555555---------------|
|---------------------------------------------------------|
  ...... ......               ...... ......

Riff 2
|------------------------------------------------------|
|------------------------------------------------------|
|----------------6\4-4-2-------------------------------|
|-777777-444444--4\2-2-0-6--777777-444444-7-4-4-7-4-4--|
|-555555-222222----------4--555555-222222-5-2-2-5-2-2--|
|------------------------------------------------------|
  ...... ......             ...... ......   . .   . .

Riff 3
|-----------------------------------------------|
|-----------------------------------------------|
|-----------------------------------------------|
|-----------------------------------------------|
|----5"-3"-5"-3"-5"-3"----6"-8"-6"-8"-6"-8"-6"--|
|-3"-------------------4"-----------------------|

Riff 4  no distortion
|--------------------------|
|--------------------------|
|-----0-------0---------0--|
|---2---2---2---2-----2----|
|-0-------0-------0h2------|
|--------------------------|

Riff 5
|------------------------------------------------|
|------------------------------------------------|
|-----------------------------------5*-5*-5*-5*--| *= natural
|-2-2-22-2-2-22-3-3--2-2-22-2-2-22---------------|    harmonic
|-0-0-00-0-0-00-1-1--0-0-00-0-0-00---------------|
|------------------------------------------------|
      ..     ..          ..     ..

Riff 6  no distortion
|--------------------------|
|-----1-------1---------1--|
|---2---2---2---2-----2----|
|-0-------0-------0h2------|
|--------------------------|
|--------------------------|

Riff 7
|-----------------------------------------------|
|----------------------------------5*-----------|
|-2-2-22-2-2-22-3-3--2-2-22-2-2-22----5*--------| *= natural
|-0-0-00-0-0-00-1-1--0-0-00-0-0-00-------5*-----|    harmonic
|-------------------------------------------5*--|
|-----------------------------------------------|
      ..     ..          ..     ..

Riff 8  no distortion
|----------------------------------------------------|
|----------4p3-3-3----------------4p3-3-3---------1--|
|------2-2---------2-0-2h3p2--2-2---------2-0-2h3----|
|----------------------------------------------------|
|-5--------------------------------------------------|
|-3--------------------------------------------------|

Riff 9
|-----------------|
|-----------------|
|-2-22-2-3h4p3p4--|
|-0-00-0-1--------|x4
|-----------------|
|-----------------|
    ..

Riff 10
|----------|
|----------|
|----------|
|----------|
|-5--4--3--|
|-3--2--1--|

Riff 10.1
|-----------------|
|-----------------|
|-----------------|
|-----------------|x8
|-----2----2------|
|-000-0-0000-000--|
  ... . .... ...

Riff 10.2
|-----------------|
|-----------------|
|-----------------|
|-----------------|x4
|-----5----5------|
|-333-3-3333-333--|
  ... . .... ...

Riff 10.1 x4
Riff 10.2 x4

Riff 11
|--------------------|
|--------------------|
|--------------------|
|-5"p2"h5"p2"h5"p2"--|x4
|--------------------|
|--------------------|

Riff 11.1
|--------------------|
|--------------------|
|--------------------|
|--------------------|x4
|--------------------|
|-6"p3"h6"p3"h6"p3"--|

Riff 11.2
|--------------------|
|--------------------|
|--------------------|
|--------------------|x4
|--------------------|
|-3"p0"h3"p0"h3"p0"--|

Riff 11.1 x4

Riff 11   x4

Riff 11.3
|--------------------------------------|
|--------------------------------------|
|--------------------------------------|
|-5"p2"h5"p2"h5"p2"h5"p2"h5"p2"-5"p2"--|x4
|--------------------------------------|
|--------------------------------------|
  .  .  .  .  .  .  .  .  .  .  .  .

END

  Visit MetalTabs.com for more metal tablature

bottom separator

Contact Us | Privacy Policy | Disclaimer | Legal Notice
Copyright © 2001-2014 MetalTabs.com. All Rights Reserved.