top separator

Home

Forum

What's New

Submit a Tab

FAQ

Links

Contact Us

Link to Us

MuSpy.com

MetalTabs.com logo

Bands

0-9

A

B

C

D

E

F

G

H

I

J

K

L

M

N

O

P

Q

R

S

T

U

V

W

X

Y

Z

Search

What

Where
 

Skyfire - "Caged" Guitar Tab

Plain Text Version
More Skyfire Tabs

Hits: 2897
Rated: 5.00 out of 5 (1 vote)
Updated: 2005-10-29 03:33:36

 

By:

Kalmahswamp

sendpm.gif

email.gif

Important note
This tab is available online because we obtained explicit permission from Skyfire or their label.


#----------------------------------PLEASE NOTE---------------------------------#
#This file is the author's own work and represents their interpretation of the #
#song. You may only use this file for private study, scholarship, or research. #
#Unless specified otherwise, this is NOT an official tab from the band members.#
#------------------------------------------------------------------------------#

  Visit MetalTabs.com for more metal tablature
  
Band:  Skyfire
Album: Mind Revolution
Song:  Caged

Copyright (c)  Hammerheart 2003

Transcribed By: Paul Sullivan
Email:          kalmahswamp@yahoo.com

[#]- Artificial Harmonic
\- Slide down
/- Slide up
h- hammer on
p- Pull Off

Tuning E A D G B E

Part 1
E-------------------------------------------------------------------
B-------------------------------------------------------------------
G-------------------------------------------------------------------
D-6---------6---------6-------------------------6--4--6---------6---
A-6---------6---------6-------------------------6--4--6---------6---
E-4-4-4-4-4-4-4-4-4-4-4-4-4-4-4-4-4-4-4-4-4-4-4-4--2--4-4-4-4-4-4---

---------------------------------------------------------------------|
----------------------------------------------------------5---[6]\0--|
--------------------------------------------------------5---5--------|
---------6-------------------------6--4--2-----------2---------------|
---------6-------------------------6--4--2-----------2---------------|
-4-4-4-4-4-4-4-4-4-4-4-4-4-4-4-4-4-4--2--0-0-0-0-0-0-0---------------|

Part 2
E----------------------------------------------------------4---2-1-------4-
B-----------------------------------5-6---5--------------2---------4-4-2---
G-----5-7-------4-5---4h5-----5-7-------7---5-7-4-5------------------------
D-----------9-9-------------------9------------------3-3-----3-------------
A-0-0-----0---------0-----0-0----------------------------------------------
E--------------------------------------------------------------------------

E---2-2---2-4-2-4-6---------|
B-2-----6-------------------|
G---------------------------|
D---------------------------|
A---------------------------|
E---------------------------|

Part 3 (rythem chords)
E-------------------------|
B-------------------------|
G-------------------------|
D-7---------------2-------|
A-7---------------2-------|
E-5---------------1-------|

Part 3 (lead)
E---1-4-1-3---1---8---8---8\1-1-4---------8-6-----------6-6-6-6h7---6-----|
B-1---------4---8---8---8---------4-6-8-9-----9-8-6-4/6-----------9---7-9-|
G-------------------------------------------------------------------------|
D-------------------------------------------------------------------------|
A-------------------------------------------------------------------------|
E-------------------------------------------------------------------------|

Part 1

Part 2

Part 4 (rythem as 3)
E---1-0-1------------------1-3-5---1-5-3-1h3p1p0h1h3p1-5h6-3h5-1h3-0h1---
B-3-------5-3-1-3--0-3-5-5-------3---------------------------------------
G------------------------------------------------------------------------
D------------------------------------------------------------------------
A------------------------------------------------------------------------
E------------------------------------------------------------------------

-----------------------|
-3h5-1h3-0h1-----------|
-----------------------|
-----------------------|
-----------------------|
-----------------------|

Part 3

Keyboard Interlude

Part 5 (muted)
E----------------------------------------------|
B----------------------------------------------|
G----------------------------------------------|
D-3-3-3-3-3-3-3-3--6-6-6-6--2-2-2-2------------|
A-3-3-3-3-3-3-3-3--6-6-6-6--2-2-2-2------------|
E-1-1-1-1-1-1-1-1--4-4-4-4--0-0-0-0------------|

Part 6 (trem pick second lead part
E----------------------|------------------------|
B----------------------|-----6---4--------------|
G--------------6/8-8---|-3-6---6---6-5-3--------|
D-3-3-3--6-6-6-6/8-8---|------------------------|
A-3-3-3--6-6-6-4/6-6---|------------------------|
E-1-1-1--4-5-4---------|------------------------|

Part 4

Part 3

Resolution:
E-----------------------5/7--------|
B-7h8-5h7-3h5-2h3-0h3h5------------|
G----------------------------------|
D----------------------------------|
A----------------------------------|
E----------------------------------|

  Visit MetalTabs.com for more metal tablature

bottom separator

Contact Us | Privacy Policy | Disclaimer | Legal Notice
Copyright © 2001-2014 MetalTabs.com. All Rights Reserved.