top separator

Home

Forum

What's New

Submit a Tab

FAQ

Links

Contact Us

Link to Us

MuSpy.com

MetalTabs.com logo

Bands

0-9

A

B

C

D

E

F

G

H

I

J

K

L

M

N

O

P

Q

R

S

T

U

V

W

X

Y

Z

Search

What

Where
 

Cadaveria - "Omen of Delirium" Guitar Tab

Plain Text Version
More Cadaveria Tabs

Hits: 1969
Updated: 2005-10-23 10:53:15

 

By:

Tjaial

sendpm.gif

email.gif

Important note
This tab is available online because we obtained explicit permission from Cadaveria or their label.


#----------------------------------PLEASE NOTE---------------------------------#
#This file is the author's own work and represents their interpretation of the #
#song. You may only use this file for private study, scholarship, or research. #
#Unless specified otherwise, this is NOT an official tab from the band members.#
#------------------------------------------------------------------------------#

  Visit MetalTabs.com for more metal tablature
  
Band:  Cadaveria
Album: Far Away From Conformity
Song:  Omen of Delirium
Version 1.0 - 19-10-05

Transcribed By: Tjaial
Email:          Tjaial@aol.com
Copyright (c)   Scarlet Records

.  - palm mute           /  - slide up to
\  - slide down to       ~  - vibrato
h  - hammer on           b  - Bend
p  - pull off            Suffixes for bend
t  - tap                 f  - full bend    h - half bend
ph - pinched harmonic    q  - quarter bend t - tap bend
*  - see comment         ^  - Hold bend    r release bend
x  - Stuccatto           ~  - vibrato bend
,  - slight palm mute    () - ghost note, sustained note
"  - tremolo note        <> - Trill

Tuning B E A D G B or use a 7 string

listen to the song for timing and order of riffs

intro
|----------------------|
|----------------------|
|----------------------|
|----------------------|
|-2---4--5--7-5-7-5-7--|
|-0---2--3--5-3-5-3-5--|

Riff 1 also solo Riff
|-----------------------------------|
|-----------------------------------|
|-----------------------------------|
|-----------------------------------|
|-2-2-------2-2-------10-9-7-5-4-5--|
|-0-0-7p5-7-0-0-7p5-7-8--7-5-3-2-3--|

Riff 2
|-------------------------------|  |----------------------------22\--|
|-------------------------------|  |---------------------------------|
|-------------------------------|  |---------------------------------|
|-------------------------------|  |---------------------------------|
|-4-44-2-4-4-44-2-4-4-44-2-4-5--|  |-4-44-2-4-4-44-2-4-4-44-2-4------|
|-2-22-0-2-2-22-0-2-2-22-0-2-3--|  |-2-22-0-2-2-22-0-2-2-22-0-2------|

Riff 3
|-------------------------------------------------------|
|-------------------------------------------------------|
|-------------------------------------------------------|
|-------------------------------------------------------|
|-------------------------------------------------------|
|-2"2"0"2"2"2"0"2"2"2"0"2"3"--2"2"0"2"2"2"0"2"2"2"3"0"--|

Riff 4
|---------------------------------------------------|
|---------------------------------------------------|
|----------------------------------1----------------|
|--------------------------2-0-2-3---3-2-0----------|
|-7-0-7-0-7-0-7-0--3-2-3-5-----------------3-2-0-2--|
|---------------------------------------------------|
    .   .   .   .  . . . .

|---------------------------------------------------|
|---------------------------------------------------|
|---------------------------------------------------|
|----------------------------------1----------------|
|--------------------------2-0-2-3---3-2-0----------|
|-7-0-7-0-7-0-7-0--3-2-3-5-----------------3-2-0-2--|
    .   .   .   .  . . . .

Riff 5                       Play this on its own later a few times
|---------------------------|----------------------------------|
|---------------------------|----------------------------------|
|---------------------------|----------------------------------|
|-----10-7-2-2-3-2-2-2------|10-7-2-2-3-2-2-2-10-10-9-7-5-7-7--|
|-8-7-8--5-0-0-1-0-0-0--8-7-|8--5-0-0-1-0-0-0-8--8--7-5-3-5-5--|
|-6-5-------------------6-5-|----------------------------------|

|-------------------------|
|-------------------------|
|----------------7-----7--|
|-7-7-7--------5-----5----|x4
|-5-5-5-8b-5-5-----5------|
|-------------------------|

Riff 6
|------------------------------------|
|------------------------------------|
|-5-----2-----5/7-5-----2------------|
|-3-000-0-000-3/5-3-000-0-000--------|x8
|-----------------------------5/7-7--|
|-----------------------------3/5-5--|
    ...   ...       ...   ...

END

  Visit MetalTabs.com for more metal tablature

bottom separator

Contact Us | Privacy Policy | Disclaimer | Legal Notice
Copyright © 2001-2014 MetalTabs.com. All Rights Reserved.