top separator

Home

Forum

What's New

Submit a Tab

FAQ

Links

Contact Us

Link to Us

MuSpy.com

MetalTabs.com logo

Bands

0-9

A

B

C

D

E

F

G

H

I

J

K

L

M

N

O

P

Q

R

S

T

U

V

W

X

Y

Z

Search

What

Where
 

Gruesome Stuff Relish - "Gruesome Stuff Relish - Faces Of Death" Guitar Tab

Plain Text Version
More Gruesome Stuff Relish Tabs

Hits: 3639
Updated: 2005-10-23 10:47:12

 

By:

sendpm.gif

email.gif

Important note
We did our best to reach Gruesome Stuff Relish and ask for their permission to publish this tab. Unfortunately they did not respond to our requests or we could not find a way to contact them. This tab is available online until Gruesome Stuff Relish tells us to take it down.


#----------------------------------PLEASE NOTE---------------------------------#
#This file is the author's own work and represents their interpretation of the #
#song. You may only use this file for private study, scholarship, or research. #
#Unless specified otherwise, this is NOT an official tab from the band members.#
#------------------------------------------------------------------------------#

  Visit MetalTabs.com for more metal tablature
  
Band: Gruesome stuff relish
Album: Split your guts
Song: Faces of death

Copyright (c) Deepsend records 2003
Version 1.0 - 10/18/05

Transcribed By: Haemorrhage
Email:          xlos_crudos4x@yahoo.com


.  - palm mute           /  - slide up to
\  - slide down to       ~  - vibrato
h  - hammer on           b  - Bend
p  - pull off            Suffixes for bend
t  - tap                 f  - full bend    h - half bend
ph - pinched harmonic    q  - quarter bend t - tap bend
*  - see comment         ^  - Hold bend    r release bend
x  - Stuccatto           ~  - vibrato bend
,  - slight palm mute    () - ghost note, sustained note
"  - tremolo note        <> - Trill

Tuning B

Riff 1                                               End of riff 1
|--------------------------|-------------------------|
|--------------------------|-------------------------|
|--------------------------|-------------------------|x3
|---2-----6-5-5--6-5-5-5-x3|--2--------------------x1|
|-----1---6/5-5--6/5-5-5---|----1-------3------------|
|-0-----1-4/3-3--4/3-3-3---|0-----1-3-4---4-3-4-2-3--|


Riff 1a(same as riff 1 with slight diff)             End of riff 1a
|--------------------------|-------------------------|
|--------------------------|-------------------------|
|--------------------------|-------------------------|x1
|---2-----5-6-5--5-6-5-5-x3|--2--------------------x1|
|-----1---5\6-5--5\6-5-5---|----1-------3------------|
|-0-----1-3\4-3--3\4-3-3---|0-----1-3-4---4-3-4-2-3--|


Riff 2              End of riff 2
|-------------------|
|-------------------|
|-------------------|
|-------------------|x1
|-2-3-2----2-3-2----|
|-0-1-0-7"-0-1-0-8"-|


Riff 3(listen closely for this one)                End of riff 3
|--------------------------------------------------|
|--------------------------------------------------|
|--------------------------------------------------|
|--------------------------------------------------|x2
|--------------------------------------------------|
|-0"-1"-0"-7"--0"-1"-0"-8"--0"-1"-0"-7"--3"--1"-2"-|


Riff 1 x1
Riff 2 x1
Riff 3 x2
Riff 1a x2

End
|---|
|---|
|---|
|-2-|
|-2-|
|-0-|

  Visit MetalTabs.com for more metal tablature

bottom separator

Contact Us | Privacy Policy | Disclaimer | Legal Notice
Copyright © 2001-2014 MetalTabs.com. All Rights Reserved.