top separator

Home

Forum

What's New

Submit a Tab

FAQ

Links

Contact Us

Link to Us

MuSpy.com

MetalTabs.com logo

Bands

0-9

A

B

C

D

E

F

G

H

I

J

K

L

M

N

O

P

Q

R

S

T

U

V

W

X

Y

Z

Search

What

Where
 

Devil to Pay - "valley of the dogs" Guitar Tab

Plain Text Version
More Devil to Pay Tabs

Hits: 1441
Updated: 2005-10-23 10:43:07

 

By:

sendpm.gif

email.gif

Important note
This tab is available online because we obtained explicit permission from Devil to Pay or their label.


#----------------------------------PLEASE NOTE---------------------------------#
#This file is the author's own work and represents their interpretation of the #
#song. You may only use this file for private study, scholarship, or research. #
#Unless specified otherwise, this is NOT an official tab from the band members.#
#------------------------------------------------------------------------------#

  Visit MetalTabs.com for more metal tablature
  
Band:  Devil To Pay
Album: Thirty Pieces Of Silver
Song:  Valley Of Dogs
Copyright (c)  Benchmark Records 2004
Version 1.0 - 16/10/05

Transcribed By: Marcus Horsley
Email:          gilthaer@stonerrock.net


.  - palm mute           /  - slide up to
\  - slide down to       ~  - vibrato
h  - hammer on           b  - Bend
p  - pull off            Suffixes for bend
t  - tap                 f  - full bend    h - half bend
ph - pinched harmonic    q  - quarter bend t - tap bend
*  - see comment         ^  - Hold bend    r release bend
x  - Stuccatto           ~  - vibrato bend
,  - slight palm mute    () - ghost note, sustained note
"  - tremolo note        <> - Trill

Tuning C G C F A D

Intro Riff


|-------------------------------------------------------------------|
|-------------------------------------------------------------------|
|-------------------------------------------------------------------|
|----------3------------3-3-3h5-----------3-------------------------| Repeat 3
|-----3h5----5-----3h5---------------3h5----5---1--1-1--------------|
|-0~------------0~---------------0~-------------1--1-1--------------|

						.  . .

Pre Verse

|-------------------------------------------------------------------|
|-------------------------------------------------------------------|
|-------------------------------------------------------------------|
|----------3------------3-3-3h5-----------3-------------------------|
|-----3h5----5-----3h5---------------3h5----5---1~~-----------------|
|-0~------------0~---------------0~-------------1~~-----------------|

Verse - Reapeat for verse. Near end of verse, play without PM.

|-------------------------------------------------------------------|
|-------------------------------------------------------------------|
|-------------------------------------------------------------------|
|-------------------------------------------------------------------|
|-------------------------------------------------------------------|
|-0--0-3--3/6--6\5---0--0-3--3/6--6\5-------------------------------|

  .  . .  . .  . .   .  . .  . .  . .


Chorus

|-------------------------------------------------------------------|
|-------------------------------------------------------------------|
|-------------------------------------------------------------------|
|----------3------------3-3-3h5-----------3-------------------------|
|-----3h5----5-----3h5---------------3h5----5---1--1-1--------------|
|-0~------------0~---------------0~-------------1--1-1--------------|

						.  . .

Bridge - Repeat 10. (twice)

|-------------------------------------------------------------------|
|-------------------------------------------------------------------|
|-------------------------------------------------------------------|
|-------------------------------------------------------------------|
|----5-5-5-5-5-5-5h6p5----5-5-5-5-5-5-5h6p5-------------------------|
|-0---------------------0-------------------------------------------|

  .  . . . . . . . . .

Pre-Breakdown Repeat 2 then back to Bridge. Second time through go to breakdown.

|-------------------------------------------------------------------|
|-------------------------------------------------------------------|
|-------------------------------------------------------------------|
|-------------------------------------------------------------------|
|-----------5-5-5-5-5-5-5h6p5-----------5-5-5-5-5-5-5h6p5-----------|
|-6-5-3-0~---------------------6-5-3-0~-----------------------------|

	    . . . . . . . . .		. . . . . . . . .

Breakdown

|-------------------------------------------------------------------|
|-------------------------------------------------------------------|
|-------------------------------------------------------------------|
|-------------------------------------------------------------------|
|-----------*drums*----6-5-3-0~--6-5-3-0~--6-5-3-0~-----------------|
|-6-5-3-0~-------------6-5-3-0~--6-5-3-0~--6-5-3-0~-----------------|

		       . . . .   . . . .   . . . .

Outro - Repeat to end

|-------------------------------------------------------------------|
|-------------------------------------------------------------------|
|-------------------------------------------------------------------|
|-------------------------------------------------------------------|
|--6-5-3-0~-------------------6-5-3-0~------------------------------|
|--6-5-3-0~--0-0-0-0-0-0-0-0--6-5-3-0~------------------------------|

   . . . .   . . . . . . . .  . . . .

I've tried to be as concise as I can with repeats, however it is a complex song.
With a bit of nounce you should be able to work it out from the above.

Any problems/corrections mail me: gilthaer@stonerrock.net

END

  Visit MetalTabs.com for more metal tablature

bottom separator

Contact Us | Privacy Policy | Disclaimer | Legal Notice
Copyright © 2001-2014 MetalTabs.com. All Rights Reserved.