top separator

Home

Forum

What's New

Submit a Tab

FAQ

Links

Contact Us

Link to Us

MuSpy.com

MetalTabs.com logo

Bands

0-9

A

B

C

D

E

F

G

H

I

J

K

L

M

N

O

P

Q

R

S

T

U

V

W

X

Y

Z

Search

What

Where
 

Cadaveria - "Eleven Three O Three" Guitar Tab

Plain Text Version
More Cadaveria Tabs

Hits: 1920
Rated: 3.00 out of 5 (1 vote)
Updated: 2005-10-23 10:42:20

 

By:

Tjaial

sendpm.gif

email.gif

Important note
This tab is available online because we obtained explicit permission from Cadaveria or their label.


#----------------------------------PLEASE NOTE---------------------------------#
#This file is the author's own work and represents their interpretation of the #
#song. You may only use this file for private study, scholarship, or research. #
#Unless specified otherwise, this is NOT an official tab from the band members.#
#------------------------------------------------------------------------------#

  Visit MetalTabs.com for more metal tablature
  
Band:  Cadaveria
Album: Far Away From Conformity
Song:  Eleven Three O Three
Version 1.0 - 17-10-05

Transcribed By: Tjaial
Email:          Tjaial@aol.com
Copyright (c)   Scarlet Records

.  - palm mute           /  - slide up to
\  - slide down to       ~  - vibrato
h  - hammer on           b  - Bend
p  - pull off            Suffixes for bend
t  - tap                 f  - full bend    h - half bend
ph - pinched harmonic    q  - quarter bend t - tap bend
*  - see comment         ^  - Hold bend    r release bend
x  - Stuccatto           ~  - vibrato bend
,  - slight palm mute    () - ghost note, sustained note
"  - tremolo note        <> - Trill

Tuning B E A D G B or use a 7 string

listen to the song for timing and order of riffs

Intro
|---------------------------------|  |-5*-------| *= natural harmonic.
|---------------------------------|  |--5*------|    lightly mute the
|---------------------------------|  |---5*-----|    5th fret bar on
|---------------------------------|  |----5*----|    all strings and
|-2-2-2-1-2-2-2-2-3--2-2-2-1-2-2--|  |-----5*---|    strum up.
|-0-0-0---0-0-0-0-1--0-0-0---0-0--|  |------5*--|
      .   . . . .        .   . .

Riff 1
|-----------------------------------------------|
|-----------------------------------------------|
|-----------------------------------------------|
|-----------------------------------------------|
|-------------------------------------------/\--|
|-00-00-01013-00-00-01013-00-00-01013-00-00-/\--|
  .. .. ..... .. .. ..... .. .. ..... .. ..

Riff 2
|-----------------------|
|-----------------------|
|-----------------------|
|-3---------------------|
|-1-4------5-3----------|
|---2--3-5-----5-3-2-0--|

Riff 3
|--------------------------------------------------------------|
|--------------------------------------------------------------|
|--------------------------------------------------------------|
|--------------9998887775550055-0h5h7-0h5h7-0h5h7-0h5h7-0h5h7--|x4
|-777766667777-------------------------------------------------|
|--------------------------------------------------------------|

Riff 4
|----------------------------------------------------|
|----------------------------------------------------|
|-2h4-4-2-2-2-2h4-4-2-2-2-2h4-4-2-2-2-2h4-2h4h5p4-2--|
|-2---2-2-2-2-2---2-2-2-2-2---2-2-2-2-2---2-------2--|
|----------------------------------------------------|
|----------------------------------------------------|
        . .         . .         . .

Riff5
|-------------------------------------|
|-------------------------------------|
|-2-2--4-----2-2h4-4-2-2-2-2h4-2-2-4--|
|-0-0--2-6-6-0-2---2-2-2-2-2---2-2-2--|
|--------4-4--------------------------|
|-------------------------------------|
                     . .       . .

Riff 6
|--------------------------|   |--------------------------|
|--------------------------|   |--------------------------|
|--------------------------|   |--------------------------|
|-0h2-2-2-0h2-2-2-0h2-2-2--|x2 |-4h5-5-5-4h5-5-5-4h5-5-5--|x2
|--------------------------|   |--------------------------|
|--------------------------|   |--------------------------|

Riff 7
|---------------------|
|---------------------|
|---------------------|
|---------------------|x16
|-0h2----0h2----2-----|
|-0---00-0---00-0-00--|
      ..     ..   ..

Riff 8

|----------------------------------|   |----------------------------------|
|----------------------------------|   |----------------------------------|
|----------------------------------|   |----------------------------------|
|-------------------------5--------|x4 |-------------------------5--------|x4
|-0h5h7-0h5h7-0h5h7-0h5h7---7p5----|   |-0h5h7-0h5h7-0h5h7-0h5h7---7p5----|
|-------------------------------7--|   |-------------------------------7--|
                                         . . . . . . . . .
|---------------------|
|---------------------|
|---------------------|
|---------------------|x8
|-0h2----0h2----2-----|
|-0---00-0---00-0-00--|
      ..     ..   ..

|----------------------------------|
|----------------------------------|
|----------------------------------|
|-------------------------5--------|
|-0h5h7-0h5h7-0h5h7-0h5h7---7p5----|
|-------------------------------7--|
  . . . . . . . . .

END

  Visit MetalTabs.com for more metal tablature

bottom separator

Contact Us | Privacy Policy | Disclaimer | Legal Notice
Copyright © 2001-2014 MetalTabs.com. All Rights Reserved.