top separator

Home

Forum

What's New

Submit a Tab

FAQ

Links

Contact Us

Link to Us

MetalTabs.com logo

Bands

0-9

A

B

C

D

E

F

G

H

I

J

K

L

M

N

O

P

Q

R

S

T

U

V

W

X

Y

Z

Search

What

Where
 

Mourning Beloveth - "The Apocalypse Machine" Guitar Tab

Plain Text Version
More Mourning Beloveth Tabs

Hits: 3428
Rated: 5.00 out of 5 (7 votes)
Updated: 2007-01-02 20:15:23

 

By:

Paddy

sendpm.gif

email.gif

Important note
This tab is available online because we obtained explicit permission from Mourning Beloveth or their label.


#----------------------------------PLEASE NOTE---------------------------------#
#This file is the author's own work and represents their interpretation of the #
#song. You may only use this file for private study, scholarship, or research. #
#Unless specified otherwise, this is NOT an official tab from the band members.#
#------------------------------------------------------------------------------#

  Visit MetalTabs.com for more metal tablature
  
================================================================================
                       M O U R N I N G   B E L O V E T H

                                       -

                  T H E   A P O C A L Y P S E   M A C H I N E
================================================================================


                               A MURDEROUS CIRCUS
                            (c) Grau Records - 2005
                        http://www.mourningbeloveth.com/


                              Tune Down 1 & 1/2 Steps
                                  C# F# B E G# C#

                                 Tempo =  70 BPM
                               Time Signature = 4/4



                          -----------------------------
                                 Transcribed by

                                 PADDY MCMULLAN
                           stinkypoohpants@yahoo.co.uk

                                   Version 1.3
                      (Corrections Outlined at Bottom of Tab)
                             -----------------------

                             Tablature Symbols Used:


 P.M...    -  Palm Mute
 p         -  Pull-Off
 h         -  Hammer-On
 (/)       -  Legato Slide (Blank space indicates length of slide)
 \         -  Slide Down to/Down From (Blank space indicates length of slide)
 /         -  Slide Up To/Up From (Blank space indicates length of slide)
 ( )       -  Ghost Note/Tied Note/Implied Note
 ~~        -  Vibrato
 9T10      -  Trill between 9 and 10/Rapidly Hammer-on & Pull-off on these notes



================================================================================
Riff 1a: Guitars 1 & 2 with heavy distortion (Play once)
================================================================================


  1                   2                            3
||-------------------|----------------------------|-------------------|
||-------------------|----------------------------|-------------------|
||--2----------------|--(2)-----------------------|--2----------------|
||--2----------------|--(2)------2-2-2--2--2-2-2--|--2----------------|
||--0----------------|--(0)------0-0-0--0--0-0-0--|--0----------------|
||-------------------|----------------------------|-------------------|
                                 P.M..........

 4                            5                    6
|----------------------------|--------------------|---------------------|
|----------------------------|--------------------|---------------------|
|--(2)-----------------------|--2-----------------|---------------------|
|--(2)------2-2-2--2--2-2-2--|--2--------------2--|--(2)----------------|
|--(0)------0-0-0--0--0-0-0--|--0--------------2--|--(2)----------------|
|----------------------------|-----------------0--|--(0)----------------|
            .............

 7                   8                            9
|-------------------|----------------------------|-------------------|
|-------------------|----------------------------|-------------------|
|--2----------------|--(2)-----------------------|--2----------------|
|--2----------------|--(2)------2-2-2--2--2-2-2--|--2----------------|
|--0----------------|--(0)------0-0-0--0--0-0-0--|--0----------------|
|-------------------|----------------------------|-------------------|
                                .............

 10                           11                   12
|----------------------------|--------------------|---------------------||
|----------------------------|--------------------|---------------------||
|--(2)-----------------------|--2-----------------|---------------------||
|--(2)------2-2-2--2--2-2-2--|--2--------------7--|--(7)----------------||
|--(0)------0-0-0--0--0-0-0--|--0--------------5--|--(5)----------------||
|----------------------------|--------------------|---------------------||


================================================================================
Riff 1b: Guitar 3 with heavy distortion (Play once)
================================================================================


  1                        2                     3
||------------------------|---------------------|---------------------------|
||------------------------|---------------------|---------------------------|
||--------2--4----5-------|--(5)----------------|-----2--4--5----(5/7)------|
||-----2------------------|---------------------|---------------------------|
||--0---------------------|---------------------|--0------------------------|
||------------------------|---------------------|---------------------------|

 4                      5                        6
|----------------------|------------------------|---------------------|
|----------------------|-----------5------------|---------------------|
|--(7)-----------------|-----4--5-------5----4--|--(4)----------------|
|----------------------|------------------------|---------------------|
|----------------------|--0---------------------|---------------------|
|----------------------|------------------------|---------------------|

 7                       8                     9
|-----------------------|---------------------|----------------------------|
|-----------------------|---------------------|----------------------------|
|--------2--4----5------|--(5)----------------|-----2--4--5----(5/7)-------|
|-----2-----------------|---------------------|----------------------------|
|--0--------------------|---------------------|--0-------------------------|
|-----------------------|---------------------|----------------------------|

 10                    11                       12
|---------------------|------------------------|---------------------||
|---------------------|-----------5------------|---------------------||
|--(7)----------------|-----4--5-------5----7--|--(7)----------------||
|---------------------|------------------------|---------------------||
|---------------------|--0---------------------|---------------------||
|---------------------|------------------------|---------------------||



================================================================================
Riff 2a: Guitars 1 & 2 (Play once) [Tempo = 75 BPM]
================================================================================


||-----------------------|-------------------------|
||-----------------------|-------------------------|
||-----------------------|-------------------------|
||--0--2--3--0----2------|-------------------------|
||-----------------------|--0--2--3--3h5----2------|
||-----------------------|-------------------------|
   ...                     ...

|--------------------------|---------------------||
|--------------------------|---------------------||
|--------------------------|---------------------||
|--------------------------|---------------------||
|--0--0--2--3----3h5----2--|--(2)----------------||
|--------------------------|---------------------||
  ...



================================================================================
Riff 2b: Guitar 3 (Play once)
================================================================================


||------------------------|----------------------------|
||------------------------|----------------------------|
||--7--9--10--7----9------|----------------------------|
||------------------------|--7--9--10--10h12----9------|
||------------------------|----------------------------|
||------------------------|----------------------------|
   ...                      ...

|-----------------------------|---------------------||
|-----------------------------|---------------------||
|-----------------------------|---------------------||
|--7--7--9--10----10h12----9--|--(9)----------------||
|-----------------------------|---------------------||
|-----------------------------|---------------------||
  ...



================================================================================
All guitars repeat riffs 1a & 1b respectively
================================================================================


================================================================================
All guitars repeat riffs 2a & 2b respectively
================================================================================


================================================================================
All guitars repeat riffs 1a & 1b respectively
================================================================================


================================================================================
All guitars repeat riffs 2a & 2b respectively
================================================================================


================================================================================
Riff 3.1a: Guitars 1 & 2 (Play once)
================================================================================


  1                        2                        3
||------------------------|------------------------|------------------------|
||------------------------|------------------------|------------------------|
||------------------------|------------------------|------------------------|
||------------------------|------------------------|------------------------|
||--2-(5/7)-7--7----------|--2-(5/7)-7--6----------|--2-(5/7)-7--7----------|
||--0--0----0--8----------|--0--0----0--7----------|--0--0----0--8----------|

 4                      5                        6
|----------------------|------------------------|------------------------------|
|----------------------|------------------------|------------------------------|
|----------------------|------------------------|------------------------------|
|----------------------|------------------------|------------------------------|
|--7---7-7--6----------|--2-(5/7)-7--7----------|--2-(5/7)-7--6---6-7-6-9-7-6--|
|--8---8-8--7----------|--0--0----0--8----------|--0--0----0--7----------------|
                                                                  .........
 7                        8
|------------------------|------------------------------------||
|------------------------|------------------------------------||
|------------------------|------------------------------------||
|------------------------|------------------------------------||
|--2-(5/7)-7--7----------|--10---10-10--6---*-----------------||
|--0--0----0--8----------|--8----8--8---7---7-7--7h8p(7\5)h7--||



* At this point the tempo increases to 75 BPM



================================================================================
Riff 3.1b: Guitar 3 (Play once)
================================================================================


  1                  2                  3
||------------------|------------------|------------------|
||-R-              -|-                -|-                -|
||-E-              -|-                -|-                -|
||-S-              -|-                -|-                -|
||-T-              -|-                -|-                -|
||------------------|------------------|------------------|

 4                         5                  6
|-------------------------|------------------|------------------|
|-------------------------|-R-              -|-                -|
|-------------------------|-E-              -|-                -|
|--5---7-5-4--------------|-S-              -|-                -|
|------------6------------|-T-              -|-                -|
|-------------------------|------------------|------------------|

 7                  8
|------------------|-------------------------------------||
|-                -|-------------------------------------||
|-                -|-------------------------------------||
|-                -|--5---7-5-4-------9-9--9h10p(9\7)h9--||
|-                -|------------6------------------------||
|------------------|-------------------------------------||



================================================================================
Riff 3.2a: Guitars 1 & 2 (Play twice)
================================================================================

  1                        2                        3
||------------------------|------------------------|------------------------|
||------------------------|------------------------|------------------------|
||------------------------|------------------------|------------------------|
||------------------------|------------------------|------------------------|
||--2-(5/7)-7--7----------|--2-(5/7)-7--6----------|--2-(5/7)-7--7----------|
||--0--0----0--8----------|--0--0----0--7----------|--0--0----0--8----------|
   ...                      ...                      ...
 4                        5                      6
|------------------------|----------------------|------------------------------|
|------------------------|----------------------|------------------------------|
|------------------------|----------------------|------------------------------|
|------------------------|----------------------|------------------------------|
|--10---10-10--6---------|--2-(5/7)-7--7--------|--2-(5/7)-7--6---6-7-6-9-7-6--|
|--8----8--8---7---------|--0--0----0--8--------|--0--0----0--7----------------|
                            ...                                   .........
 7                        8
|------------------------|------------------------------------| |
|------------------------|------------------------------------| |
|------------------------|------------------------------------|*|
|------------------------|------------------------------------|*|
|--2-(5/7)-7--7----------|--10---10-10--6---------------------| |
|--0--0----0--8----------|--8----8--8---7---7-7--7h8p(7\5)h7--| |



On the second repeat, replace the last bar with the supplement:



        --------------
        | Supplement |
        --------------

        ||----------------------------------| |
        ||----------------------------------| |
        ||----------------------------------|*|
        ||----------------------------------|*|
        ||--10---10-10--6--------*----------| |
        ||--8----8--8---7-------------------| |



* At this point the tempo decreases to 70 BPM



================================================================================
Riff 3.2b: Guitar 3 (Play once)
================================================================================


  1                           2
||---------------------------|--------------------------|
||---------------------------|--------------------------|
||---------------------------|--------------------------|
||--9h10-9--7-7-5-2----------|--2---2-(2/4)-4---------4-|
||---------------------------|--------------------------|
||---------------------------|--------------------------|

 3                        4
|------------------------|-----------------------------------|
|------------------------|-----------------------------------|
|------------------------|-----------------------------------|
|--5-4--2--0-------------|----------------9-9--9h10p(9\7)h9--|
|------------3---------2-|--0-2--3--5-2----------------------|
|------------------------|-----------------------------------|
  ...

 5    |_3__|                        6
|----------------------------------|--------------------------|
|----------------------------------|--------------------------|
|----------------------------------|--------------------------|
|--10-9h10p9--7-((7)\5)-2----------|--2---2-(2/4-4)---------5-|
|----------------------------------|--------------------------|
|----------------------------------|--------------------------|

 7                        8
|------------------------|-------------------------------|
|------------------------|-------------------------------|
|------------------------|-------------------------------|
|--5-4--2--0-------------|-------------------------------|
|------------3---------2-|--0-2--3--5-2----2--2h3p2p0-2--|
|------------------------|-------------------------------|

 9                         10                         11
|-------------------------|--------------------------|------------------------|
|-------------------------|--------------------------|------------------------|
|-------------------------|--------------------------|------------------------|
|--9---7-(7\5)-2----------|--2---2-(2/4)-4---------4-|--5-4--2--0-------------|
|-------------------------|--------------------------|------------3---------2-|
|-------------------------|--------------------------|------------------------|

 12                                  13   |_3__|
|-----------------------------------|----------------------------------|
|-----------------------------------|----------------------------------|
|-----------------------------------|----------------------------------|
|----------------9--9-9h10p(9\7)h9--|--10-9h10p9--7-((7)\5)-2----------|
|--0-2--3--5-2----------------------|----------------------------------|
|-----------------------------------|----------------------------------|

 14                        15
|-------------------------|------------------------|
|-------------------------|------------------------|
|-------------------------|------------------------|
|--2---2-(2/4)-4----------|--5-4--2--0-------------|
|-------------------------|------------3---------2-|
|-------------------------|------------------------|

 16
|--------------------------||
|--------------------------||
|--------------------------||
|--------------------------||
|--0-2--3--5-2------0------||
|---------------------3-2--||



================================================================================
Riff 4.1: Guitars 1 & 2 (Play once)
================================================================================


||--------------------|--------------------||
||--------------------|--------------------||
||--------------------|--------------------||
||--2--------2--------|--2--------2--------||
||--2--------2--------|--2--------2--------||
||--0--------0--------|--0--------0--------||
   ...      ...         ...      ...



================================================================================
Riff 4.2: Guitars 1 & 2 (Play 4 times)
================================================================================


    |__3__|  |__3__|  |__3__|  |__3__|
||--------------------------------------|
||--------------------------------------|
||--------------------------------------|
||--------------------------------------|
||--2--2--2--2--2--2--2--7--7--7--7--7--|
||--0--0--0--0--0--0--0--0--0--0--0--0--|
    ..................................


   |__3__|  |__3__|  |__3__|  |__3__|
|--------------------------------------| |
|--------------------------------------| |
|--------------------------------------|*|
|--9--9--9--9--9--9--9--9--9--9--9--0--|*|
|--7--7--7--7--7--7--7--7--7--7--7--0--| |
|--0--0--0--0--0--0--0--0--0--0--0-----| |
   ................                ...



================================================================================
Riff 5a: Guitar 1 (Play once through) [Tempo = 75 BPM]
================================================================================


1   |_____3______|  |_____3_______|
||-----------------------------------|
||-----------------------------------|
||--------------------------5-(5)(5)-|
||--5-------4-------5-------5--5-(5)-|
||--3----3--3----3--3----3--3-(3)-3--|
||-----------------------------------|
        ...     ...     ...      ...


2  |__3__|  |___3___|      |__3__|
|-----------------------------------|
|-----------------------------------|
|--------9--12--11--9---------------|
|-----9----------------9~~----7--9--|
|--7--------------------------------|
|-----------------------------------|
  ...


3  |_____3______| |_______3_____|
|----------------------------------|
|----------------------------------|
|----------------------------------|
|--2-------0-----------------------|
|--3----3--3----0--3-------2----2--|
|------------------5----5--3----3--|
       ...     ...     ...


4 |____3____|      |__3__|
|--------------------------------|
|--------------------------------|
|--------------------------------|
|--------------------------------|
|--2----------2----2--2--2--2----|
|--0--0-0-0-0-0----0--0--0--0----|
   ..........      .......


5  |______3_____|  |_____3________|
|-----------------------------------|
|-----------------------------------|
|--------------------------5--5-----|
|--2-------4-------5-------5--5-----|
|--3----3--3----3--3----3--3--3--3--|
|-----------------------------------|
       ...     ...     ...      ...


6  |___3___| |____3___|  |_3__|       |__3__|
|----------------------------------------------|
|----------------------------------------------|
|-------------12--11--9------------------------|
|-----9------------------9h10p(9\7)h9~---7--9--|
|--7-----7-7-----------------------------------|
|----------------------------------------------|
  ...    ...


7  |_____3______| |_______3_____|
|----------------------------------|
|----------------------------------|
|----------------------------------|
|--2-------0-----------------------|
|--3----3--3----0--3-------2----2--|
|------------------5----5--3----3--|
       ...     ...     ...


8 |____3____|      |__3__|
|--------------------------------|
|--------------------------------|
|--------------------------------|
|--------------------------------|
|--2----------2----2--2--2--2----|
|--0--0-0-0-0-0----0--0--0--0----|
   ..........      .......


9  |__3__|  |__3__|  |__3__|  |__3__|
|--------------------------------------|
|--------------------------------------|
|-----------------------------5--------|
|--2--2--2--4--4--4--5--5--5--5--5-----|
|--3--3--3--3--3--3--3--3--3--3--3--0--|
|--------------------------------------|
   .........................    ......


10 |___3___| |____3___|  |_3__|       |__3__|
|----------------------------------------------|
|----------------------------------------------|
|-------------12--11--9------------------------|
|-----9------------------9h10p(9\7)h9~---7--9--|
|--7-----7-7-----------------------------------|
|----------------------------------------------|
  ...    ...


11  |_____3______| |_______3_____|
|----------------------------------|
|----------------------------------|
|----------------------------------|
|--2-------0-----------------------|
|--3----3--3----0--3-------2----2--|
|------------------5----5--3----3--|
       ...     ...     ...


12 |____3____|      |__3__|
|--------------------------------|
|--------------------------------|
|--------------------------------|
|--------------------------------|
|--2----------2----2--2--2--2----|
|--0--0-0-0-0-0----0--0--0--0----|
   ..........      .......


13 |______3_____|  |_____3________|
|-----------------------------------|
|-----------------------------------|
|--------------------------5--5-----|
|--2-------4-------5-------5--5-----|
|--3----3--3----3--3----3--3--3--3--|
|-----------------------------------|
       ...     ...     ...      ...


14 |__3__|  |___3___|      |__3__|
|-----------------------------------|
|-----------------------------------|
|--------9--12--11--9---------------|
|-----9----------------9~~----7--9--|
|--7--------------------------------|
|-----------------------------------|
  ...


15 |_____3______| |_______3_____|
|----------------------------------|
|----------------------------------|
|----------------------------------|
|--2-------0-----------------------|
|--3----3--3----0--3-------2----2--|
|------------------5----5--3----3--|
       ...     ...     ...


16|____3____|      |__3__|
|--------------------------------|
|--------------------------------|
|--------------------------------|
|--------------------------------|
|--2----------2----2--2--2--2----|
|--0--0-0-0-0-0----0--0--0--0----|
   ..........      .......


17 |__3__|  |__3__|  |__3__|  |__3__|
|--------------------------------------|
|--------------------------------------|
|-----------------------------5--------|
|--2--2--2--4--4--4--5--5--5--5--5-----|
|--3--3--3--3--3--3--3--3--3--3--3--0--|
|--------------------------------------|
   .........................    ......


18 |___3___| |____3___|  |_3__|       |__3__|
|----------------------------------------------|
|----------------------------------------------|
|-------------12--11--9------------------------|
|-----9------------------9h10p(9\7)h9~---7--9--|
|--7-----7-7-----------------------------------|
|----------------------------------------------|
  ...    ...


19  |_____3______| |_______3_____|
|----------------------------------|
|----------------------------------|
|----------------------------------|
|--2-------0-----------------------|
|--3----3--3----0--3-------2----2--|
|------------------5----5--3----3--|
       ...     ...     ...


20 |____3____|      |__3__|
|--------------------------------||
|--------------------------------||
|--------------------------------||
|--------------------------------||
|--2----------2----2--2--2--2----||
|--0--0-0-0-0-0----0--0--0--0----||
   ..........      .......



On the final repeat, play the last bar an extra time, and hold the last chord



================================================================================
Riff 5b: Guitar 2 (Repeat as outlined below)
================================================================================


-------
Part 1:
-------


    |_____3______|  |_____3_______|
||-----------------------------------|
||-----------------------------------|
||--------------------------5-(5)(5)-|
||--5-------4-------5-------5--5-(5)-|
||--3----3--3----3--3----3--3-(3)-3--|
||-----------------------------------|
        ...     ...     ...      ...


   |____3___| |__3__|  |_____3_____|     |_____3______| |_______3_____|
|-------------------------------------|----------------------------------|
|-------------------------------------|----------------------------------|
|-------------------------------------|----------------------------------|
|--9----------9-----9--9--------9--9--|--2-------0-----------------------|
|--7--7-7-7-7-7--7--7--7--------7--7--|--3----3--3----0--3-------2----2--|
|-------------------------------------|------------------5----5--3----3--|
      .......   ...                          ...     ...     ...


  |____3____|      |__3__|
|--------------------------------||
|--------------------------------||
|--------------------------------||
|--------------------------------|| X 1
|--2----------2----2--2--2--2----||
|--0--0-0-0-0-0----0--0--0--0----||
   ..........      .......



NOTE: Simply substitute the single bars below for the first bar of "Part 1" each
      time.


-------
Part 2:
-------


   |______3_____|  |_____3________|
|-----------------------------------|
|-----------------------------------|
|--------------------------5--5-----|
|--2-------4-------5-------5--5-----| X 1
|--3----3--3----3--3----3--3--3--3--|
|-----------------------------------|
       ...     ...     ...      ...



-------
Part 3:
-------


   |__3__|  |__3__|  |__3__|  |__3__|
|--------------------------------------|
|--------------------------------------|
|-----------------------------5--------|
|--2--2--2--4--4--4--5--5--5--5--5-----| X 1
|--3--3--3--3--3--3--3--3--3--3--3--0--|
|--------------------------------------|
   .........................    ......





---------------
Play Part 3 x 1
---------------



On the final repeat, play the last bar an extra time, and hold the last chord



================================================================================
Riff 6: Guitars 4 & 5 with clean tone (Play once) [tempo = 65 BPM]
================================================================================


* Let notes ring wherever possible *


   1                                     2
| |-0-----------------------------------|--0-----------------------------------|
| |----------0h 1--------------1--------|-----------0h 1--------------1--------|
|6|----2-----------2--------2-----2-----|-----2-----------2--------2-----2-----|
|/|-------2--------------2-----------2--|--------2--------------2-----------2--|
|4|-------------------0-----------------|--------------------0-----------------|
| |-------------------------------------|--------------------------------------|

 3                                      4
|--------------------------------------|--------------------------------------|
|-----------------0-----------------0--|-----------------------------0--------|
|--------0-----------------0-----------|-----------0--------------------0-----|
|-----4--------4--------4--------4-----|--------4-----4-----------4--------4--|
|--2--------2--------2--------2--------|-----2-----------2-----2--------------|
|--------------------------------------|--0-----------------0-----------------|

 5                                      6
|--------------------------------------|--------------------------------------|
|-----------------------------0--------|--------------------------------------|
|-----------0-----------------------0--|--------------------0--------0--------|
|--------4-----4-----------4-----4-----|-----0-----4-----4-----4--------4-----|
|-----2-----------2-----2--------------|--2-----2-----2-----------2--------2--|
|--0-----------------0-----------------|--------------------------------------|

 7                                      8
|--------------------------------------|--0-----------------------------------|
|-----------------------------------0--|-----------0h 1--------------1--------|
|--------------------0-----------0-----|-----2-----------2--------2-----2-----|
|-----0-----4-----4-----4-----4--------|--------2--------------2-----------2--|
|--2-----2-----2-----------2-----------|--------------------0-----------------|
|--------------------------------------|--------------------------------------|

 9                                      10
|--0-----------------------------------|--------------------------------------|
|-----1-----0h 1--------------1--------|-----------------0-----------------0--|
|-----------------2--------2-----2-----|--------0-----------------0-----------|
|--------2--------------2-----------2--|-----4--------4--------4--------4-----|
|--------------------0-----------------|--2--------2--------2--------2--------|
|--------------------------------------|--------------------------------------|

 11                                     12
|--------------------------------------|--------------------------------------||
|-----------------------------0--------|-----------------------------0--------||
|-----------0--------------------0-----|-----------0-----------------------0--||
|--------4-----4-----------4--------4--|--------4-----4-----------4-----4-----||
|-----2-----------2-----2--------------|-----2-----------2-----2--------------||
|--0-----------------0-----------------|--0-----------------0-----------------||



(Note the slight variation in bar 9)



================================================================================
Lead Fill 1.1: Guitar 3 (Play once) Enter on bar 4 of riff 6
================================================================================


* Volume swell *

||-(12)---------------|--(12)------------|
||--------------------|------------------|
||--9-----------------|--(9)-------------|
||--------------------|------------------|
||--------------------|------------------|
||--------------------|------------------|



The ghost note on the high E string represents feedback, and is not played



================================================================================
Lead Fill 1.2: Guitar 3 (Play once) Enter on bar 6 of riff 6
================================================================================


  1                                2
||--------------------------------|--------------------------------|
||--------------------------------|--------------------------------|
||--------------------------------|--------------------------------|
||-----4----4----4--5-------------|-----4----4----4--5-------------|
||--5----------------------5------|--5----------------------5------|
||--------------------------------|--------------------------------|

 3                             4
|-----------------------------|------------------------------------|
|-----------------------------|------------------------------------|
|--9~~----------9--7~~--------|--7--5~~--------5\-2--4--5~~--(5/7)-|
|-----------------------------|------------------------------------|
|-----------------------------|------------------------------------|
|-----------------------------|------------------------------------|

 5                          |_3_|   6
|----------------------------------|-------------------------------|
|----------------------------------|-------------------------------|
|--4------------------2--5--4h5p4--|-------------------------------|
|----------------------------------|--2------------0--5--2--2------|
|----------------------------------|-------------------------------|
|----------------------------------|-------------------------------|

 7
|---------------------------||
|---------------------------||
|---------------------------||
|--(2)--------------------5-||
|---------------------------||
|---------------------------||



================================================================================
Riff 7a: Guitars 1 & 2 (Play twice) [Tempo = 70 BPM]
================================================================================


||-------------------------------------|
||-------------------------------------|
||-------------------------------------|
||-----------4-----4--4h5-4------------|
||--2--5--2-----2------------2--5------|
||-------------------------------------|


|-------------------------------------|----------------------------|
|-------------------------------------|----------------------------|
|-------------------------------------|--2------------2------------|
|-----------4-----4--4h5-4------------|--2------------2------------|
|--2--5--2-----2------------2--5------|--0------------0------------|
|-------------------------------------|----------------------------|


|--------------------------------|----------------------------|
|--------------------------------|----------------------------|
|--2------------2----------------|--4------------4------------|
|--2------------2----------------|--4------------4------------|
|--0------------0----------(3\2)-|--2------------2------------|
|--------------------------------|----------------------------|


|----------------------------|----------------------------| |
|----------------------------|----------------------------| |
|----------------------------|----------------------------|*|
|--2------------2------------|--2------------2------------|*|
|--2------------2------------|--2------------2------------| |
|--0------------0------------|--0------------0------------| |



After playing this riff twice, play the first 2 bars once more before proceeding



================================================================================
Riff 7b: Guitar 3 (Play once)
================================================================================

  1
||----------------------------------------|
||----------------------------------------|
||----------------------------------------|
||-----------4-----4--4h5-4-----4h5-4-----|
||--2--5--2-----2------------2---------2--|
||----------------------------------------|

 2
|----------------------------------------|
|----------------------------------------|
|----------------------------------------|
|-----------4-----4--4h5-4-----4h5-4-----|
|--2--5--2-----2------------2---------2--|
|----------------------------------------|

 3                             4
|-----------------------------|----------------------------------|
|-----------------------------|----------------------------------|
|--9~~----------9--7~~--------|--7--5~~--------5\-2--4--5~~--7-5-|
|-----------------------------|----------------------------------|
|-----------------------------|----------------------------------|
|-----------------------------|----------------------------------|

 5                          |_3_|   6
|----------------------------------|-------------------------------|
|----------------------------------|-------------------------------|
|--4------------------2--5--4h5p4--|-------------------------------|
|----------------------------------|--2------------0--5--2--2------|
|----------------------------------|-------------------------------|
|----------------------------------|-------------------------------|

 7                     8
|---------------------|--------------------------------|
|---------------------|--------------------------------|
|---------------------|--------------------------------|
|--(2)----------------|-----4----4----4--5-------------|
|---------------------|--5----------------------5------|
|---------------------|--------------------------------|

 9
|-------------------------------------------|
|-------------------------------------------|
|-------------------------------7-----------|
|-----4----4----4--5--0-7-5-7-9---9T10-9----|
|--5-------------------------------------10-|
|-------------------------------------------|

 10                            11
|-----------------------------|------------------------------------|
|-----------------------------|------------------------------------|
|--9~~----------9--7~~--------|--7--5~~--------5\-2--4--5~~--(5/7)-|
|-----------------------------|------------------------------------|
|-----------------------------|------------------------------------|
|-----------------------------|------------------------------------|

 12                             13
|------------------------------|-------------------------------|
|------------------------------|-------------------------------|
|--4------------------2--5--4--|-------------------------------|
|------------------------------|--2------------0--5--2--2------|
|------------------------------|-------------------------------|
|------------------------------|-------------------------------|

 14                    15
|---------------------|--------------------------------|
|---------------------|--------------------------------|
|---------------------|--------------------------------|
|--(2)----------------|-----4----4----4--5-------------|
|---------------------|--5----------------------5------|
|---------------------|--------------------------------|

 16
|--------------------------------||
|--------------------------------||
|--------------------------------||
|-----4----4----4--5------7------||
|--5-----------------------------||
|--------------------------------||



================================================================================
Riff 8a: Guitars 1 & 2 (Play 6 times) [Tempo = 115 BPM]
================================================================================


| |------------------------------------------------------|
| |------------------------------------------------------|
|8|------------------------------------------------------|
|/|-----7-----9-----10-----12-----10-----9-----10-----9--|
|4|--0-----0-----0------0------0------0-----0------0-----|
| |------------------------------------------------------|
    ...   ...   ...    ...    ...    ...   ...    ...

       |_3__|
|----------------------------------------------------------| |
|----------------------------------------------------------| |
|-------------------------------------------9-----9--9--9--|*|
|--10--9h10p(9\7)--9------7-----6--6h 7-----7-----7--7--7--|*| X 2
|---------------------0------0-----------0-----0-----------| |
|----------------------------------------------------------| |
                     ...    ...         ...   ...

||----------------------------------------------------|
||----------------------------------------------------|
||-----7-----7-----7-----7-----7-----7-----10-----10--|
||-----7-----7-----7-----7-----7-----7-----10-----10--|
||--5--5--5--5--5--5--5--5--5--5--5--5--5--8---8--8---|
||----------------------------------------------------|
   ...   ...   ...   ...   ...   ...   ...    ...

|--------------------------------------------------| |
|--------------------------------------------------| |
|--------------------------------------------------|*|
|-----7-----7-----7-----7-----7-----7-----7-----7--|*| X 2
|-----7-----7-----7-----7-----7-----7-----7-----7--| |
|--5--5--5--5--5--5--5--5--5--5--5--5--5--5--5--5--| |
  ...   ...   ...   ...   ...   ...   ...   ...



================================================================================
Riff 8b: Guitar 3 (Play 6 times)
================================================================================


||------------------------------------------------------|
||------------------------------------------------------|
||------------------------------------------------------|
||-----7-----9-----10-----12-----10-----9-----10-----9--|
||--0-----0-----0------0------0------0-----0------0-----|
||------------------------------------------------------|
   ...   ...   ...    ...    ...    ...   ...    ...

       |_3__|
|-----------------------------------------------------| |
|-----------------------------------------------------| |
|---------------------------------------9----9--9--9--|*|
|--10--9h10p(9\7)--9----7----6--6h 7----7----7--7--7--|*| X 2
|-----------------------------------------------------| |
|-----------------------------------------------------| |


||-----------------------------------|
||-----------------------------------|
||--7--------------------------------|
||--7--------------------------------|
||--5--------------------------------|
||-----------------------------------|


|----------------------------------| |
|--R-                             -| |
|--E-                             -|*|
|--S-                             -|*| X 2
|--T-                             -| |
|----------------------------------| |



================================================================================
Guitars 1 & 2 play riff 4.1 X 1 [Tempo = 70 BPM]
================================================================================


================================================================================
Guitars 1 & 2 play riff 4.2 X 4
================================================================================


================================================================================
Guitars 1 & 2 play riff 5a & 5b according to respective repeats [Tempo = 75 BPM]
================================================================================


On the last repeat, guitars 1 & 2 end with the following:


  |____3____|      |__3__|
|--------------------------------||
|-----------------------------R -||
|-----------------------------E -||
|-----------------------------S -||
|--2----------2----2--2--2--2-T -||
|--0--0-0-0-0-0----0--0--0--0----||
   ..........      .......



================================================================================
Lead Fill 2: Guitar 6 with heavy distortion (Play once)
================================================================================


This fill enters on the fifth repeat of riff 5

  1                       2 |___3___|          |__3__|
||-----------------------|------------------------------|
||-----------------------|------------------------------|
||-----------------------|------------------------------|
||--2----4----5----10----|--10--9--------------------5--|
||-----------------------|---------10--7----------5-----|
||-----------------------|------------------------------|

 3                      4             |__3__|
|----------------------|-----------------------|
|----------------------|-----------------------|
|----------------------|-----------------------|
|--2----0--------------|-----------------7--9--|
|------------3----2----|--7--------------------|
|----------------------|-----------------------|

 5            |__3__| |___3___|   6             |__3__|
|--------------------------------|-----------------------|
|--------------------------------|-----------------------|
|--------------------------------|--9--------------5--4--|
|--10-----------10-10-10--10--9--|-----------------------|
|--------------------------------|-----------------------|
|--------------------------------|-----------------------|

 7  |___3____| |__3____|        |___3___|
|------------------------------------------|
|------------------------------------------|
|--(7/14)---12----11h 12-------------------|
|-------------------------12----10--9--10--|
|------------------------------------------|
|------------------------------------------|

 8 |__3__|  |__3__|  |__3__|  |__3__|   9
|--------------------------------------|-------------------------|
|--------------------------------------|-------------------------|
|--------------------------------------|-------------------------|
|--7--9--7--5--4--2--5--4--2--0--2--0--|--10----9----12----10----|
|--------------------------------------|-------------------------|
|--------------------------------------|-------------------------|

 10               |___3___|
|----------------------------|
|----------------------------|
|--9----12----9--------------|
|--------------------10--10--|
|----------------------------|
|----------------------------|

 11|___3___| |_3__|  |___3____|          |__3___|
|--------------------------------------------------|--------------------|
|--------------------------------------------------|--------------------|
|--12--11h12p11------14--12--(11/ 16)----17----14--|--16~~~-------------|
|----------------12--------------------------------|--------------------|
|--------------------------------------------------|--------------------|
|--------------------------------------------------|--------------------|

   |___3__|  |___3__|  |___3__|  |__3___|
|------------------------------------------|
|------------------------------------------|
|--17--16----14----12--16--14----12----11--|
|------------------------------------------|
|------------------------------------------|
|------------------------------------------|

   |___3__| |___3___|      |__3__|
|-----------------------------------|----------------------|
|-----------------------------------|----------------------|
|--14--12----11----12---------------|----------------------|
|----------------------9------7--9--|--10----9----5--------|
|-----------------------------------|----------------------|
|-----------------------------------|----------------------|

              |__3__|                  |__3__|
|----------------------|------------------------|
|----------------------|------------------------|
|-------------------0--|--5~~~---------5--4--2--|
|--2-------------------|------------------------|
|----------------------|------------------------|
|----------------------|------------------------|

               |__3__|
|-----------------------|-----------------------|-------------------|
|-----------------------|--10----8----7---------|-------------------|
|--9~~~-----------7--9--|------------------7----|--9~~~-------------|
|-----------------------|-----------------------|-------------------|
|-----------------------|-----------------------|-------------------|
|-----------------------|-----------------------|-------------------|

                 |___3____|     |__3__|          |__3__|
|----------------------------|---------------------------|
|----------------------------|---------------------------|
|----------------------------|---------------------------|
|--10------------10--12--10--|--10--9--------------7--9--|
|----------------------------|---------------------------|
|----------------------------|---------------------------|


|-----------------------|-------------------|---------------------||
|-----------------------|-------------------|---------R-         -||
|-----------------------|-------------------|---------E-         -||
|--10\ --5----4---------|-------------------|---------S-         -||
|------------------5----|--7----------------|--(7)----T-         -||
|-----------------------|-------------------|---------------------||



================================================================================
End
================================================================================


Tab summary:        Riff 1a + 1b x 1
                    Riff 2a + 2b x 1
                    Riff 1a + 1b x 1
                    Riff 2a + 2b x 1
                    Riff 1a + 1b x 1
                    Riff 2a + 2b x 1
                    Riff 3.1a + 3.1b x 1
                    Riff 3.2a x 2 + Riff 3.2b x 1
                    Riff 4.1 x 1
                    Riff 4.2 x 4
                    Riff 5a + 5b:
                           Part 1 x 1
                           Part 2 x 1
                           Part 3 x 1
                           Part 2 x 2
                           Part 3 x 1
                    Riff 6 x 1
                    Lead Fill 1.1 x 1
                    Lead Fill 1.2 x 1
                    Riff 7a x 2 + Riff 7a x 1
                    Riff 8a + 8b x 6
                    Riff 4.1 x 1
                    Riff 4.2 x 4
                    Riff 5 x 12
                    Lead Fill 2 x 1

                    END


-----------------------
Corrections (25/12/06):
-----------------------

* Corrected Riff 5a


-----------------------
Corrections (18/09/06):
-----------------------

* Corrected Riff 1b
* Corrected Riff 2b
* Corrected Riff 3.1b
* Corrected Riffs 5a & 5b
* Minor adjustments to layout


-----------------------
Corrections (03/01/06):
-----------------------

* Corrected Riff 4.2

  Visit MetalTabs.com for more metal tablature

bottom separator

Contact Us | Privacy Policy | Disclaimer | Legal Notice
Copyright © 2001-2014 MetalTabs.com. All Rights Reserved.