top separator

Home

Forum

What's New

Submit a Tab

FAQ

Links

Contact Us

Link to Us

MuSpy.com

MetalTabs.com logo

Bands

0-9

A

B

C

D

E

F

G

H

I

J

K

L

M

N

O

P

Q

R

S

T

U

V

W

X

Y

Z

Search

What

Where
 

Devil to Pay - "mouthful of spite" Guitar Tab

Plain Text Version
More Devil to Pay Tabs

Hits: 1669
Updated: 2005-10-23 10:38:18

 

By:

sendpm.gif

email.gif

Important note
This tab is available online because we obtained explicit permission from Devil to Pay or their label.


#----------------------------------PLEASE NOTE---------------------------------#
#This file is the author's own work and represents their interpretation of the #
#song. You may only use this file for private study, scholarship, or research. #
#Unless specified otherwise, this is NOT an official tab from the band members.#
#------------------------------------------------------------------------------#

  Visit MetalTabs.com for more metal tablature
  
Band:  Devil To Pay
Album: Thirty Pieces Of Silver
Song:  Mouthful Of Spite

Copyright (c)  Benchmark Records 2004
Version 1.0 - 16/10/05

Transcribed By: Marcus Horsley
Email:          gilthaer@stonerrock.net


.  - palm mute           /  - slide up to
\  - slide down to       ~  - vibrato
h  - hammer on           b  - Bend
p  - pull off            Suffixes for bend
t  - tap                 f  - full bend    h - half bend
ph - pinched harmonic    q  - quarter bend t - tap bend
*  - see comment         ^  - Hold bend    r release bend
x  - Stuccatto           ~  - vibrato bend
,  - slight palm mute    () - ghost note, sustained note
"  - tremolo note        <> - Trill

Tuning C G C F A D

Intro Riff - Strummed Rhythm

|-------------------------------------------|
|-------------------------------------------|
|-------------------------------------------|
|-5/7-7-7-7\5-5-----------------------------|
|-3/5-5-5-5\3-3--3h5-5-5-5-3-0--------------|
|----------------3h5-5-5-5-3-0--------------|


Riff 2

|-------------------------------------|
|-------------------------------------|
|-------------------------------------|
|----------5/7-7-7-7------------------|
|--0-------3/5-5-5-5------------------|
|--0-6~~-6----------------------------|

Riff 3

|-------------------------------------------------|
|-------------------------------------------------|
|-------------------------------------------------|
|-------------------------------------------------|
|-0-5-5-0--0-5-5-0--0-5-5-0--0-5-5-5h6p5----------|
|-0-5-5-0--0-5-5-0--0-5-5-0--0-5-5-5h6p5----------|

	.	 .	  .    Strummed.


Any corrections, suggestions mail me: gilthaer@stonerrock.net

END

  Visit MetalTabs.com for more metal tablature

bottom separator

Contact Us | Privacy Policy | Disclaimer | Legal Notice
Copyright © 2001-2014 MetalTabs.com. All Rights Reserved.