top separator

Home

Forum

What's New

Submit a Tab

FAQ

Links

Contact Us

Link to Us

MuSpy.com

MetalTabs.com logo

Bands

0-9

A

B

C

D

E

F

G

H

I

J

K

L

M

N

O

P

Q

R

S

T

U

V

W

X

Y

Z

Search

What

Where
 

Akercocke - "Seduced" Guitar Tab

Plain Text Version
More Akercocke Tabs

Hits: 4131
Rated: 4.25 out of 5 (4 votes)
Updated: 2005-10-23 10:37:59

 

By:

Robbie Filth

sendpm.gif

email.gif

Important note
This tab is available online because we obtained explicit permission from Akercocke or their label.


#----------------------------------PLEASE NOTE---------------------------------#
#This file is the author's own work and represents their interpretation of the #
#song. You may only use this file for private study, scholarship, or research. #
#Unless specified otherwise, this is NOT an official tab from the band members.#
#------------------------------------------------------------------------------#

  Visit MetalTabs.com for more metal tablature
  
Band: Akercocke
Album: Words That Go Unspoken, Deeds That Go Undone
Song: Seduced
Record Label: Earache
Tuning: C F A# D# G C

-----------------------------------------------
-----------------------------------------------
-----------------------------------------------
-----------------------------------------------
-33-3/4-33-3/4-33-3/4-44-4/5-33-4-----4-3------
-11-1/2-11-1/2-11-1/2-22-2/3-11-2-2-3-----4-3--
 pm     ..     ..     ..     .. . . . . . . .


-------------------------------------------------------
-------------------------------------------------------
-------------------------------------------------------
-------------------------------------------------------
-33-3/4-33-3/4-33-3/4-44-4/5-33-3/4-33-3/4-4--4-4-5-5--
-11-1/2-11-1/2-11-1/2-22-2/3-11-1/2-11-1/2-2-2-2-3-3---
 pm     ..     ..     ..     ..     ..     . ........

--------------------------------------------
--------------------------------------------
--------------------------------------------
--------------------------------------------
-33-3/4-33-3/4-33-3/4-44-4/5-4-----4-3------
-11-1/2-11-1/2-11-1/2-22-2/3-2-2-3-----4-3--
 pm     ..     ..     ..     . . . . . . .


--------------------------------------------------
--------------------------------------------------
--------------------------------------------------
--------------------------------------------------
-33-3/4-33-3/4-33-3/4-44-4/5-33-3/4-7\---4-4-5-5--
-11-1/2-11-1/2-11-1/2-22-2/3-11-1/2-7\--2-2-3-3---
 pm     ..     ..     ..     ..         ........

--------------------------------------------
--------------------------------------------
--------------------------------------------
--------------------------------------------
-33-3/4-33-3/4-33-3/4-44-4/5-4-----4-3------
-11-1/2-11-1/2-11-1/2-22-2/3-2-2-3-----4-3--
 pm     ..     ..     ..     . . . . . . .


--------------------------------------------------
--------------------------------------------------
--------------------------------------------------
--------------------------------------------------
-33-3/4-33-3/4-33-3/4-44-4/5-33-3/4-7\---4-4-5-5--
-11-1/2-11-1/2-11-1/2-22-2/3-11-1/2-7\--2-2-3-3---
 pm     ..     ..     ..     ..         ........

----------------------------------
----------------------------------
----------------------------------
-----4-------4-------3-------3----
-4-3-----4-3-----3-2-----3-2------
-------2-------2-------1-------1--X2
 trem...........................

Guitar1
-----------------------------------
-----------------------------------
-----------------------------------
-----44------44------33------33----
-4433----4433----3322----3322------
-------22------22------11------11--X2
 pm..............................

Guitar2
-----------------------------------
-----------------------------------
-----88------88------77------77----
-8877----8877----7766----7766------
-------66------66------55------55--
-----------------------------------X2
 pm..............................

--------------------------------------------------
--------------------------------------------------
--------------------------------------------------
-------------4-767-4-767--------------------------
-5-878-5-878-------------5-878-5-878-4-757-4-757--
--------------------------------------------------X2
 pm... . ... . ... . ... . ... . ... . ... . ...

--------------------------------------------------
--------------------------------------------------
--------------------------------------------------
-------------4-767-4-767--------------------------
-5-878-5-878-------------5-878-5-878-4-757-4-757--
--------------------------------------------------X2

-----
-----
-----
-----
--4--
-----
vibrato

-------------------------------------------------
-------------------------------------------------
-------------------------------------------------
-------------------------------------------------
-5-----6-----5-----4-----5-----6-----5-----4-----
-3-----4-----3-----2-----3-----4-----3-----2-----

-------4-----------2-----------4-----------------
-------4-----------2-----------4-----------------
-------4-----------2-----------4-----------------
-------6-----------4-----------6-----------------
-5-----6-----5-----4-----5-----6-----5-----4-----
-3-----4-----3-----2-----3-----4-----3-----2-----
                                           pm

-----------------------------------
-----------------------------------
-----------------------------------
-----------------------------------
-55555555555566665555555555554444--
-33333333333344443333333333332222--X4
 pm..............................
Preferbly down pick all.

-------------------------------------------------
-------------------------------------------------
-------------------------------------------------
-------------------------------------------------
-5-----6-----5-----4-----5-----6-----5-----4-----
-3-----4-----3-----2-----3-----4-----3-----2-----

-------------------------------------------
-------------------------------------------
-------------------------------------------
-------------------------------------------
-5-----6-----5-----4-----5-----6-----5--4--
-3-----4-----3-----2-----3-----4-----3--2--

------------------------------
------------------------------
------------------------------
------------------------------
---313---3---4---313---3---2--
-1-----1---2---1-----1---0----
 trem.......................

------------------------------
------------------------------
------------------------------
------------------------------
---313---3---4---313---3-2-4--
-1-----1---2---1-----1---0-2--
 trem................... pm.

------------------------------
------------------------------
------------------------------
------------------------------
---313---3---4---313---3---2--
-1-----1---2---1-----1---0----
 trem.......................

------------------------------
------------------------------
------------------------------
------------------------------
---313---3---4---313---3-2-4--
-1-----1---2---1-----1---0-2--
 trem................... pm.

----------------------------------------------
----------------------------------------------
-5553335553330033555333555665533--------------
-xxxxxxxxxxxxxxxxxxxxxxxxxxxxxxx-----4-----4-- bend the 4's
-3333333333333333333333333333333-5-4---5-4----
---------------------------------3-2---3-2----

----------------------------------------------
----------------------------------------------
-5553335553330033555333555665533--------------
-xxxxxxxxxxxxxxxxxxxxxxxxxxxxxxx-----4-----4-- bend the 4's
-3333333333333333333333333333333-5-4---5-4----
---------------------------------3-2---3-2----

-----------------------------------
-----------------------------------
-----------------------------------
-555333555333--335553335556665533--
-44444444444455444444444444444444--
-----------------------------------

-----------------------------------
-----------------------------------
-----------------------------------
-444222444222--224442224445554422--
-33333333333344333333333333333333--
-----------------------------------

----------------------------------------------
----------------------------------------------
-5553335553330033555333555665533--------------
-xxxxxxxxxxxxxxxxxxxxxxxxxxxxxxx-----4-----4-- bend the 4's
-3333333333333333333333333333333-5-4---5-4----
---------------------------------3-2---3-2----

----------------------------------------------
----------------------------------------------
-5553335553330033555333555665533--------------
-xxxxxxxxxxxxxxxxxxxxxxxxxxxxxxx-----4--------
-3333333333333333333333333333333-5-4---5-4----
---------------------------------3-2---3-2----

------------------------------------
------------------------------------
------------------------------------
----2225552226655----222555222------
--------------------------------33--
-555--------------555---------11----X2

(Clean)
--------------------------
--------------------------
--------------------------
---2-5-2-6-5---2-5-2------
-----------------------3--
-5-----------5-------1----X2

(Back in Distortion)
---------------------------------------------
---------------------------------------------
---------------------------------------------
-5---5---5-7----9---9---9-10--9---9---9-7-5--
-3-3-3-3-3-5----7-7-7-7-7--8--7-7-7-7-7-5-3--
---1---1-----X2---5---5---------5---5--------
                                      pm.

------------------------------------------
------------------------------------------
------------------------------------------
-5---5---5-7----9---9---9-10--9---9---9\--
-3-3-3-3-3-5----7-7-7-7-7--8--7-7-7-7-7\--
---1---1-----X2---5---5---------5---5-----

-----------------------------------------------
-----------------------------------------------
-----------------------------------------------
-555-----555-----55-77--555-----555-----55-77--
-333-333-333-333-33-55--333-333-333-333-33-55--
-----111-----111------------111-----111--------
 pm. ... ... ... .. ..  ... ... ... ... .. ..

--------------------------------------------------
--------------------------------------------------
--------------------------------------------------
-999-----999-----99-10-10--999-----999-----99-77--
-777-777-777-777-77--8--8--777-777-777-777-77-55--
-----555-----555---------------555-----555--------
 pm. ... ... ... ..  .  .  ... ... ... ... .. ..

-----------------------------------------------
-----------------------------------------------
-----------------------------------------------
-555-----555-----55-77--555-----555-----55-77--
-333-333-333-333-33-55--333-333-333-333-33-55--
-----111-----111------------111-----111--------
 pm. ... ... ... .. ..  ... ... ... ... .. ..

--------------------------------------
--------------------------------------
-----------------------------------ph-
-999-----999-----99-10-10--999-----6--
-777-777-777-777-77--8--8--777-777----
-----555-----555---------------555----
 pm. ... ... ... ..  .  .  ... ...

--------------------------------
--------------------------------
--------------------------*-----
--------------------------9-*---
-----------9-10-------------10--
-6-10-9-10------6-10-9-10-------X2
the harmonic on 9 is between the 9th and 10th fret.

-------------------------------------------
-------------------------------------------
-------------------------------------------
---------5------5--------------------------
---------------------------4444---------5--
-43434343-434343-4343434343----66664444-3--
 pm...... ...... ...................... .

------------------------------------
------------------------------------
------------------------------------
---------5------5-------------------
---------------------------4--41----
-43434343-434343-4343434343-36--36--
 pm...... ...... .................

-------------------------------------------
-------------------------------------------
-------------------------------------------
---------5------5--------------------------
---------------------------4444---------5--
-43434343-434343-4343434343----66664444-3--
 pm...... ...... ...................... .

------------------------------------------------------------------
------------------------------------------------------------------
------------------------------------------------------------------
---------5------5-------------------------------------------------
---------------------------4--41----5--------5--------5--------5--
-43434343-434343-4343434343-36--36--3--------3--------3--------3--
 pm...... ...... .................

--------------------------------------
--------------------------------------
--------------------------------------
--------------------------------------
--------------------------------------
-33334422-33334411-33334422-33334411--

-------------------------------------------
-------------------------------------------
---------*------*--------------------------
---------5------5--------------------------
---------------------------4444---------5--
-43434343-434343-4343434343----66664444-3--
 pm...... ...... ...................... .
* = Pinch Harmonic

------------------------------------
------------------------------------
---------*------*-------------------
---------5------5-------------------
---------------------------4--41----
-43434343-434343-4343434343-36--36--
 pm...... ...... .................
* = Pinch Harmonic

-------------------------------------------
-------------------------------------------
---------*------*--------------------------
---------5------5--------------------------
---------------------------4444---------5--
-43434343-434343-4343434343----66664444-3--
 pm...... ...... ...................... .
* = Pinch Harmonic

--------------------------------------
--------------------------------------
---------*------*---------------------
---------5------5---------------------
---------------------------4--41---5--
-43434343-434343-4343434343-36--36-3--
 pm...... ...... .................
* = Pinch Harmonic

THE END

Any corrections or anything mail them to:
septic_flesh241@hotmail.com

  Visit MetalTabs.com for more metal tablature

bottom separator

Contact Us | Privacy Policy | Disclaimer | Legal Notice
Copyright © 2001-2014 MetalTabs.com. All Rights Reserved.