top separator

Home

Forum

What's New

Submit a Tab

FAQ

Links

Contact Us

Link to Us

MuSpy.com

MetalTabs.com logo

Bands

0-9

A

B

C

D

E

F

G

H

I

J

K

L

M

N

O

P

Q

R

S

T

U

V

W

X

Y

Z

Search

What

Where
 

Graveworm - "Tears From My Eyes" Guitar Tab

Plain Text Version
More Graveworm Tabs

Hits: 2808
Rated: 5.00 out of 5 (1 vote)
Updated: 2005-10-23 10:33:51

 

By:

sendpm.gif

email.gif

Important note
This tab is available online because we obtained explicit permission from Graveworm or their label.


#----------------------------------PLEASE NOTE---------------------------------#
#This file is the author's own work and represents their interpretation of the #
#song. You may only use this file for private study, scholarship, or research. #
#Unless specified otherwise, this is NOT an official tab from the band members.#
#------------------------------------------------------------------------------#

  Visit MetalTabs.com for more metal tablature
  
band:graveworm
album:when daylight's gone and underneath the crescent moon
song:tears from my eyes

transcibed by:joseph tawile
e_mail address:zouzou_rock6@hotmail.com

|----------------------------------------------------|
|----------------------------------------------------|
|----------------------------------------------------|
|----------------------------------------------------|
|-4---2---------7--6---------------------------------|
|-2---0-0-000-0-5--4------(*3)-----------------------|
        . ... .

|-----------|---|------|---|-----------------------------|
|-----------|---|------|---|-----------------------------|
|-----------|---|------|---|-----------------------------|
|-----------|---|------|---|-----------------------------|
|-4-------2-|-2-|-2--4-|-4-|--4--2~~~--------------------|
|-2-------0-|-0-|-0--2-|-2-|--2--0~~~--------------------|

and then you go...

|----------------------------------------------------------|
|----------------------------------------------------------|
|----------------------------------------------------------|
|----------------------------------------------------------|
|--------------------------------22------------------------|
|-2222222222222220000000000000---|-------------------------|
  ............................   |
                                 by the pick.
 start singing
|----------------------------------------------------------------------|
|----------------------------------------------------------------------|
|----------------------------------------------------------------------|
|----------------------------------------------------------------------|
|----------------------------------------------------------------------|
|-2222222222222220000000000000000055555555555555555544444444444444444--|(*4)
  ...................................................................

|----------------------------------------------------------|
|----------------------------------------------------------|
|----------------------------------------------------------|
|----------------------------------------------------------|
|-11-----9-------7--------6--------------------------------|
|-9------7-------5--------4-------(*4)---------------------|

here must be the solo guitar but i've not submit it yet but soon i will.

listen to the song well and repeat alllllllll.

  Visit MetalTabs.com for more metal tablature

bottom separator

Contact Us | Privacy Policy | Disclaimer | Legal Notice
Copyright © 2001-2014 MetalTabs.com. All Rights Reserved.