top separator

Home

Forum

What's New

Submit a Tab

FAQ

Links

Contact Us

Link to Us

MuSpy.com

MetalTabs.com logo

Bands

0-9

A

B

C

D

E

F

G

H

I

J

K

L

M

N

O

P

Q

R

S

T

U

V

W

X

Y

Z

Search

What

Where
 

Nargaroth - "Amarok - Zorn des Lammes III" Guitar Tab

Plain Text Version
More Nargaroth Tabs

Hits: 9740
Rated: 3.71 out of 5 (7 votes)
Updated: 2005-10-16 01:49:19

 

By:

MetalSchmiddi

sendpm.gif

email.gif

Important note
We did our best to reach Nargaroth and ask for their permission to publish this tab. Unfortunately they did not respond to our requests or we could not find a way to contact them. This tab is available online until Nargaroth tells us to take it down.


#----------------------------------PLEASE NOTE---------------------------------#
#This file is the author's own work and represents their interpretation of the #
#song. You may only use this file for private study, scholarship, or research. #
#Unless specified otherwise, this is NOT an official tab from the band members.#
#------------------------------------------------------------------------------#

  Visit MetalTabs.com for more metal tablature
  
Band:  Nargaroth
Album: Black Metal ist Krieg
Song:  Amarok-Zorn des Lammes III

Copyright (c)  No Colours Records (2000)
Version 1.0 - 13.10.2005

Transcribed By: Schmiddi
Email:          eternalwinter666@web.de


Tuning E A D G B E



(1:33)

I----------------------------|----------------------------
I----------------------------|---------1-1-1-1--1-1--1-1--
I--7--7-7--7-7-7-7--7-7--7-7-|-2--2-2--2-2-2-2--2-2--2-2--
I--7--7-7--7-7-7-7--7-7--7-5-|-2--2-2--2-2-2-2--2-2--2-2--
I--5--5-5--5-5-5-5--5-5--5-5-|-0--0-0--0-0-0-0--0-0--0-0--
I----------------------------|----------------------------

 ----------------------------|----------------------------
 ----------------------------|----------------------------
 --5--5-5--5-5-5-5--5-5--5-5-|----------------------------
 --5--5-5--5-5-5-5--5-5--5-3-|-5--5-5--5-5-5-5--5-7--7-9--
 --3--3-3--3-3-3-3--3-3--3-3-|-5--5-5--5-5-5-5--5-7--7-9--
 ----------------------------|-3--3-3--3-3-3-3--3-5--5-7--

 ----------------------------|----------------------------
 ----------------------------|----1-1--1-1-1-1--1-3--3-1--
 --7--7-7--7-7-7-7--7-7--7-7-|-2--2-2--2-2-2-2--2-2--2-2--
 --7--7-7--7-7-7-7--7-7--7-5-|-2--2-2--2-2-2-2--2-2--2-2--
 --5--5-5--5-5-5-5--5-5--5-5-|-0--0-0--0-0-0-0--0-0--0-0--
 ----------------------------|----------------------------

 ----------------------------|----------------------------I
 ----------------------------|----------------------------I
 --5--5-5--5-5-5-5--5-5--5-5-|----------------------------I
 --5--5-5--5-5-5-5--5-5--5-3-|-5--5-5--5-5-5-5--5-7--7-9--I
 --3--3-3--3-3-3-3--3-3--3-3-|-5--5-5--5-5-5-5--5-7--7-9--I
 ----------------------------|-3--3-3--3-3-3-3--3-5--5-7--I


Fill (4:09)

I-------------------------------------|--------------------------------------
I-3333333333333333-55555555-3333-0000-|-00000000-11111111-3333-1111-00000000-
I-2222222222222222-22222222-2222-2222-|-22222222-22222222-2222-2222-22222222-
I-------------------------------------|--------------------------------------
I-------------------------------------|--------------------------------------
I-------------------------------------|--------------------------------------

 --------------------------------------|------------------------------------I
 -0000-11111111-33333333-11111111-0000-|-0000000000000000-11111111-33333333-I
 -2222-22222222-22222222-22222222-2222-|-0000000000000000-00000000-00000000-I
 --------------------------------------|------------------------------------I
 --------------------------------------|------------------------------------I
 --------------------------------------|------------------------------------I


(5:49)

I----------------------------------------------------------------------I
I----------------------------------------------------------------------I
I----------------------------------------------------------------------I
I-2--2-2-2-2--2-2-2-4--4-4-4-4--4-4-4-4--4-4-4-4--4-4-4-5--5-5-5-5--4--I
I-2--2-2-2-2--2-2-2-2--2-2-2-2--2-2-2-3--3-3-3-3--3-3-3-3--3-3-3-3--3--I
I----------------------------------------------------------------------I


(6:30)

I----------------------------------------------------------------------I
I----------------------------------------------------------------------I
I-2--2-2-2-2--2-2-2-4--4-4-4-4--4-4-4-4--4-4-4-4--4-4-4-5--5-5-5-5--4--I
I-2--2-2-2-2--2-2-2-2--2-2-2-2--2-2-2-3--3-3-3-3--3-3-3-3--3-3-3-3--3--I
I----------------------------------------------------------------------I
I----------------------------------------------------------------------I

(8:15)

I----------------------------------------------------------------------I
I----------------------------------------------------------------------I
I----------------------------------------------------------------------I
I-2--2-2-2-2--2-2-2-4--4-4-4-4--4-4-4-4--4-4-4-4--4-4-4-5--5-5-5-7--5--I
I-2--2-2-2-2--2-2-2-2--2-2-2-2--2-2-2-3--3-3-3-3--3-3-3-3--3-3-3-3--3--I
I----------------------------------------------------------------------I


(8:22)

I----------------------------------------------------------------------I
I----------------------------------------------------------------------I
I-2--2-2-2-2--2-2-2-4--4-4-4-4--4-4-4-4--4-4-4-4--4-4-4-5--5-5-5-7--5--I
I-2--2-2-2-2--2-2-2-2--2-2-2-2--2-2-2-3--3-3-3-3--3-3-3-3--3-3-3-3--3--I
I----------------------------------------------------------------------I
I----------------------------------------------------------------------I

  Visit MetalTabs.com for more metal tablature

bottom separator

Contact Us | Privacy Policy | Disclaimer | Legal Notice
Copyright © 2001-2014 MetalTabs.com. All Rights Reserved.