top separator

Home

Forum

What's New

Submit a Tab

FAQ

Links

Contact Us

Link to Us

MuSpy.com

MetalTabs.com logo

Bands

0-9

A

B

C

D

E

F

G

H

I

J

K

L

M

N

O

P

Q

R

S

T

U

V

W

X

Y

Z

Search

What

Where
 

Akercocke - "Seraphs and Silence" Guitar Tab

Plain Text Version
More Akercocke Tabs

Hits: 3048
Rated: 4.75 out of 5 (4 votes)
Updated: 2005-10-16 01:49:12

 

By:

Robbie Filth

sendpm.gif

email.gif

Important note
This tab is available online because we obtained explicit permission from Akercocke or their label.


#----------------------------------PLEASE NOTE---------------------------------#
#This file is the author's own work and represents their interpretation of the #
#song. You may only use this file for private study, scholarship, or research. #
#Unless specified otherwise, this is NOT an official tab from the band members.#
#------------------------------------------------------------------------------#

  Visit MetalTabs.com for more metal tablature
  
Band: Akercocke
Album: Words That Go Unspoken, Deeds That Go Undone
Song: Seraphs and Silence
Record Lable: Earache
Tuning: C F A# D# G C

---------------------------------------------
---------------------------------------------
---------------------------------------------
--------------7-7-7-7---------------5-5-5-5--
-3--4---------5-5-5-5--3--4---------3-3-3-3--
-1--2-3-2-3-2----------1--2-3-2-3-2----------X3
      pm. . .               . . . .

----------------------------------
----------------------------------
----------------------------------
----------------------------------
-5-4-----6---3-4-5-4-----6---3-4--
-----4-3---5-1-2-----4-3---5-1-2--
 trem....... pm. trem....... pm.

----------------------------------
----------------------------------
----------------------------------
----------------------------------
-5-4-----6-------5-4-----6---2-3--
-----4-3---5-1-2-----4-3---5-0-1--X2
 trem....................... pm.

---------------------------------------------
---------------------------------------------
---------------------------------------------
--------------7-7-7-7---------------5-5-5-5--
-3--4---------5-5-5-5--3--4---------3-3-3-3--
-1--2-3-2-3-2----------1--2-3-2-3-2----------X3
      pm. . .               . . . .

----------------------
------5555------3333--
------5555------3333--
----------------------
----------------------
-4444------2222-------X4

-----------------------
-----------------------
-----------------------
-----------------------
-6---------4--2--4--5--
-4---------2--0--2--3--X2

-----------------------------------
-----------------------------------
-----------------------------------
-----------------------------------
-6-666666666666--------4--2--4--5--
-4-444444444444--------2--0--2--3--
   pm..........

--------------------------
--------------------------
--------------------------
--------------------------
-6-6-6-6------4--2--4--2--
-4-0-4-0------2--0--2--0--X2

(Clean)
-------------------------------------------------------------------
---------0---------------0---------------0---------------0---------
-------5---5-----------5---5-----------3---3-----------3---3-------
-----0-------0-------0-------0-------0-------0-------0-------0-----
---6-----------6---6-----------6---4-----------4---4-----------4---
-4---------------4---------------2---------------2-----------------

-------------------------------------------------------------------
---------0---------------0---------------0---------------0---------
-------5---5-----------5---5-----------4---4-----------3---3-------
-----0-------0-------0-------0-------0-------0-------0-------0-----
---6-----------6---6-----------6---5-----------5---4-----------4---
-4---------------4---------------3---------------2-----------------

(Back into Distortion)
------------------------------------------------------------------
------------------------------------------------------------------
------------------------------------------------------------------
------------------------------------------------------------------
------------------------------------------------------------------
-6-3-0-3-4-3-0-3-6-3-0-3-4-3-0-3-6-3-0-3-4-3-0-3-6-3-0-3-4-3-0-3--
 pm..............................................................
this bit is super fast!

------------------------------------------------------------------
------------------------------------------------------------------
------------------------------------------------------------------
-8-5-0-5-6-5-0-5-8-5-0-5-6-5-0-5-8-5-0-5-6-5-0-5-8-5-0-5-6-5-0-5--
------------------------------------------------------------------
------------------------------------------------------------------
this bit is super fast!

------------------------------------------------------------------
------------------------------------------------------------------
------------------------------------------------------------------
------------------------------------------------------------------
------------------------------------------------------------------
-6-3-0-3-4-3-0-3-6-3-0-3-4-3-0-3-6-3-0-3-4-3-0-3-6-3-0-3-4-3-0-3--
 pm..............................................................
this bit is super fast!

------------------------------------------------------------------
------------------------------------------------------------------
------------------------------------------------------------------
-8-5-0-5-6-5-0-5-8-5-0-5-6-5-0-5-8-5-0-5-6-5-0-5-8-5-0-5-6-5-0-5--
------------------------------------------------------------------
------------------------------------------------------------------
this bit is super fast!

------------------------------------------------------
------------------------------------------------------
------------------------------------------------------
-------6-5-7---------------------6-5-7-----------2-4--
-------------------6-5-0-2-------------------6-5-0-2--
-4-4-4-------4-4-4---------4-4-4-------4-4-4----------X2
 trem........................................... pm.

----------------------------------------------
-5-5-5-----------------5-5-5------------------
-6-6-6-----------------6-6-6------------------
-6-6-6-----------------6-6-6------------------
-4-4-4-4-5-4-----------4-4-4-4-5-4------------
-------------5-4-2-4-5-------------5-4-2-4-5--
       pm. . . . . . .       . . . . . . . .

-----------------------------------------------
-----------------------------------------------
-4-4-4------------------4-4-4------------------
-5-5-5------------------5-5-5------------------
-5-5-5------------------5-5-5------------------
-3-3-3-3-4-3-0-3-4-3-6--3-3-3-3-4-3-0-3-4-3-6--
       pm. . . . . . .        . . . . . . . .

----------------------------------------------
-5-5-5-----------------5-5-5------------------
-6-6-6-----------------6-6-6------------------
-6-6-6-----------------6-6-6------------------
-4-4-4-4-5-4-----------4-4-4-4-5-4------------
-------------5-4-2-4-5-------------5-4-2-4-5--
       pm. . . . . . .       . . . . . . . .

-----------------------------------------------
-----------------------------------------------
-4-4-4------------------4-4-4------------------
-5-5-5------------------5-5-5------------------
-5-5-5------------------5-5-5------------------
-3-3-3-3-4-3-0-3-4-3-6--3-3-3-3-4-3-0-3-4-3-6--
       pm. . . . . . .        . . . . . . . .

--------------------------------------------------
---------0-----------0----------------------------
-------6---6-------6---6---------0-----------0----
---6-----------6---------------6---6-------6---6--
-4---4-------4---4---------5-----------5----------
-------------------------3---3-------3---3--------X4

----------------------------------
----------------------------------
----------------------------------
----------------------------------
-4-5-4----------------------------
-------5-4-2-4-5-3-4-3-0-3-4-3-6--
 pm.............................

-------------------------------------------------------------------------
-------------------------------------------------------------------------
-------------------------------------------------------------------------
-6---------------6--7--6--7--9-7------------------764--------------------
-4-44444444444444-44-44-44-44----7-------------------7-1197---975--3467--
---------------------------------5-55555555555555----------11----9-------X2
   pm.........................     .............. .... ...... .........
                                                 (not sure bout this bit)

---------------------------------------------------------
---------------------------------------------------------
-------6-8-9-#-9-8-----------------6-8-9-#-9-8-----7-11--
-6-----x x x x x x ------9-8-6-----x-x-x-x-x-x-----x--x--
-4-----4-6-7-9-7-6-7-7-7-7-6-4-----4-6-7-9-7-6-77--5--9--
-------------------5-5-5-----------------------55--------
# = 11              pm                         ..

-------------------------------------------------------------------------
-------------------------------------------------------------------------
-------------------------------------------------------------------------
-6---------------6--7--6--7--9-7------------------764--------------------
-4-44444444444444-44-44-44-44----7-------------------7-1197---975--3467--
---------------------------------5-55555555555555----------11----9-------X2
   pm.........................     .............. .... ...... .........
                                                 (not sure bout this bit)

----------------------
------5555------3333--
------5555------3333--
----------------------
----------------------
-4444------2222-------X4

thrash out the first chord for a few seconds!
------------------------------------------------------------------------------
------------------------------------------------------------------------------
------------------------------------------------------------------------------
------------------------------------------------------------------------------
-5-----------5-5-5-5-5-6-5-2-5-6-5-2-5-5-5-5-5-6-5-2-5-6-5-2-5-5-5-556525652--
-3-----------3-3-3-3-3-4-3-0-3-4-3-0-3-3-3-3-3-4-3-0-3-4-3-0-3-3-3-334303430--
             pm. . . . . . . . . . . . . . . . . . . . . . . . . . .........

---------------------------------------------
---------------------------------------------
---------------------------------------------
---------------------------------------------
-555555555/666666666----555555555-5-5-5-5-5--
-303030303/444444444-X3-303030303-3-3-3-3-3--
                                 pm . . .

THE END

Should be pretty good but any mistakes you spot correct them and send me them:
septic_flesh241@hotmail.com

  Visit MetalTabs.com for more metal tablature

bottom separator

Contact Us | Privacy Policy | Disclaimer | Legal Notice
Copyright © 2001-2014 MetalTabs.com. All Rights Reserved.