top separator

Home

Forum

What's New

Submit a Tab

FAQ

Links

Contact Us

Link to Us

MetalTabs.com logo

Bands

0-9

A

B

C

D

E

F

G

H

I

J

K

L

M

N

O

P

Q

R

S

T

U

V

W

X

Y

Z

Search

What

Where
 

Cadaveria - "Blood And Confusion" Guitar Tab

Plain Text Version
More Cadaveria Tabs

Hits: 1948
Rated: 5.00 out of 5 (1 vote)
Updated: 2005-10-16 01:47:51

 

By:

Tjaial

sendpm.gif

email.gif

Important note
This tab is available online because we obtained explicit permission from Cadaveria or their label.


#----------------------------------PLEASE NOTE---------------------------------#
#This file is the author's own work and represents their interpretation of the #
#song. You may only use this file for private study, scholarship, or research. #
#Unless specified otherwise, this is NOT an official tab from the band members.#
#------------------------------------------------------------------------------#

  Visit MetalTabs.com for more metal tablature
  
Band:  Cadaveria
Album: Far Away From Conformity
Song:  Blood and Confusion
Version 1.0 - 12-10-05

Transcribed By: Tjaial
Email:          Tjaial@aol.com
Copyright (c)   Scarlet Records

.  - palm mute           /  - slide up to
\  - slide down to       ~  - vibrato
h  - hammer on           b  - Bend
p  - pull off            Suffixes for bend
t  - tap                 f  - full bend    h - half bend
ph - pinched harmonic    q  - quarter bend t - tap bend
*  - see comment         ^  - Hold bend    r release bend
x  - Stuccatto           ~  - vibrato bend
,  - slight palm mute    () - ghost note, sustained note
"  - tremolo note        <> - Trill

Tuning B E A D G B or use a 7 string

listen to the song for timing and order of riffs


intro
|-------------------|   |--------------------------|
|-------------------|   |--------------------------|
|-------------------|x3 |-7-5-4--------------------|
|-------------------|   |-------7-5-4--------------|
|-2222222--2h3p2----|   |-------------7-5-4--------|
|-0000000-----------|   |-------------------7-5-4--|
  .......

Riff 1
|--------------------------------------------|
|--------------------------------------------|
|--------------------------------------------|
|-----------------------------------5h7p5-4~-|
|-2-2-4-2-2-4-5-5-5-4-5-5-2-5-5-2-5----------|
|-0-0-2-0-0-2-3-3-3-2-3-3-0-3-3-0-3----------|

Riff 2
|------------------------5*--------------|  *= natural harmonic
|----------------------------------------|
|----------------------------------------|
|-3-3-4-3-3-4-3-3-4-3--------------------|
|-1-1-2-1-1-2-1-1-2-1--------------------|
|----------------------------------------|
  . . . . . . . . . .

Riff 3
|----------------------------------------|
|----------------------------------------|
|---------------------------3------------|
|-----9--7--3--2------9--5--3------------|
|-----7--5--5--4------7--7--1------------|
|-000-------------000--------------------|
  ...             ...

Riff 4   Played again clean                   end with(Clean)
|----------------------------------------|      |-------|
|----------------------------------------|      |-------|
|----------------------------------------|      |-----9-|
|---7-8---5h7---3-5---3-1-0--------------|      |---7---|
|-5-----3-----1-----0--------------------|      |-5-----|
|----------------------------------------|      |-------|

Riff 5
|--------------------------------------------|
|---14\13/14\---11\10/11\--------------------|
|---12\11/12\---9-\8-/9-\-------5-7-5\4-2-2--|
|-------------------------------3-5-3\2-0-0--|
|-2-----------2-----------2-2-2--------------|
|-0-----------0-----------0-0-0--------------|
  .           .           . . .         . .

Riff 5
|-----------|   |-------------------------|  *= natural harmonic
|-----------|   |-------------------2h4h5-|     lightly mute over the
|-----------|   |-------------2h4h5-------|     fret bar at the 3rd
|-----------|xn |-------2h4h5-------------|     fret low B string
|-2-2*-22---|   |-2h4h5-------------------|
|-0-0*-00---|   |-------------------------|
       ..

Riff 6
|--------------------------|
|--------------------------|
|-4--5--3--4---4--5--3--4--|
|-2--2--2--2---2--2--2--2--|
|--------------------------|
|--------------------------|

Riff 7
|--------------------------------------------------|
|--------------------------------------------------|
|-4-----4-----5-----5-----3-----3-----4-----4------|
|---222---222---222---222---222---222---222---222--|x2
|--------------------------------------------------|
|--------------------------------------------------|
  . ... . ... . ... . ... . ... . ... . ... . ...
 2nd time dont pm
|--------------------------------------------------|
|--------------------------------------------------|
|-4-----4-----5-----5-----3-----3-----4-----4------|
|---222---222---222---222---222---222---222---222--|x2
|--------------------------------------------------|
|--------------------------------------------------|

Riff 8
|-------------------------------------|  |---------------|
|-------------------------------------|  |---------------|
|-----9----9------7----7------5----5--|  |---------------|
|---7---77------5---55------3---33----|  |---------------|
|-5-----------3-----------1-----------|  |-----5---3---2-|
|-------------------------------------|  |-3-2---2---3-0-|
    .   ..      .   ..      .   ..
END

  Visit MetalTabs.com for more metal tablature

bottom separator

Contact Us | Privacy Policy | Disclaimer | Legal Notice
Copyright © 2001-2014 MetalTabs.com. All Rights Reserved.