top separator

Home

Forum

What's New

Submit a Tab

FAQ

Links

Contact Us

Link to Us

MuSpy.com

MetalTabs.com logo

Bands

0-9

A

B

C

D

E

F

G

H

I

J

K

L

M

N

O

P

Q

R

S

T

U

V

W

X

Y

Z

Search

What

Where
 

Akercocke - "Verdelet" Guitar Tab

Plain Text Version
More Akercocke Tabs

Hits: 6474
Rated: 4.80 out of 5 (5 votes)
Updated: 2005-12-11 04:26:30

 

By:

Robbie Filth

sendpm.gif

email.gif

Important note
This tab is available online because we obtained explicit permission from Akercocke or their label.


#----------------------------------PLEASE NOTE---------------------------------#
#This file is the author's own work and represents their interpretation of the #
#song. You may only use this file for private study, scholarship, or research. #
#Unless specified otherwise, this is NOT an official tab from the band members.#
#------------------------------------------------------------------------------#

  Visit MetalTabs.com for more metal tablature
  
Band: Akercocke
Album: Words That Go Unspoken Deeds That Go Undone
Song: Verdelet
Record Label: Earache
Tuning: C F A# D# G C

--------------------------------------------------------------------
--------------------------------------------------------------------
--------------------------------------------------------------------
-------------------54---------------------------------54----------
-9----222-222-222-32-222-222-222-54-222-222-222-222-32-2-5-4-5--
-7----000-000-000-----000-000-000-32-000-000-000-000-----0-3-2-3--
       pm. ... ...     ... ... ...     ... ... ... ...     . . . .

--------------------------------------------------------------
--------------------------------------------------------------
--------------------------------------------------------------
-------------54---------------------------------54----------
-222-222-222-32-222-222-222-54-222-222-222-222-32-2-5-4-5--
-000-000-000-----000-000-000-32-000-000-000-000-----0-3-2-3--
 pm. ... ...     ... ... ...     ... ... ... ...     . . . .

-----------------------------------------
-----------------------------------------
-----------------------------------------
-----3-33333333333/4-----3---------------
-222-1-11111111111/2-222-1-44-44444/54--
-000-----------------000---22-22222/32--

------------------------------------------
------------------------------------------
------------------------------------------
-----3-33333333333/4-----3----------------
-222-1-11111111111/2-222-1-44-4444-4-5-4--
-000-----------------000---22-2222-2-3-2--
                                   pm. .

----------------------------------------------------------------
----------------------------------------------------------------
----------------------------------------------------------------
-------3-3-3-3-3-----------------------3-3-3--------------------
-2-2-2-1-1-1-1-1-111-1-111-1-134-2-2-2-1-1-1-4-4-4-4-4-4-4-5----
-0-0-0---------------------------0-0-0-------2-2-2-2-2-2-2-3-1--
 pm. . . . . . . ... . ... . ... . . . . . . . . . . . . . . ph

----------------------------------------------------------------
----------------------------------------------------------------
----------------------------------------------------------------
-------3-3-3-3-3-----------------------3-3-3--------------------
-2-2-2-1-1-1-1-1-111-1-111-1-134-2-2-2-1-1-1-4-4-4-4-4-4-4-5----
-0-0-0---------------------------0-0-0-------2-2-2-2-2-2-2-3-1--
 pm. . . . . . . ... . ... . ... . . . . . . . . . . . . . . ph

----------------------------------------
----------------------------------------
----------------------0-----------------
----------------------------------------
--0--0-0--0--0--0-3-5----0--0-0--0--0-0-
-1--1-1--0--4-----------1--1-1--0--4-4--X2
let the notes ring

--------------------------------------------------------------------------
-----------------------------------------------*--------------------------
-------------------0---------------------------7--------------------------
---5-6-5---5---------------5-6-5---5-------5-6-----5-6-5---5---3-4-3---3--
-3-------3-----7-8---8-7-3-------3-----7-8-------3-------3---1-------1----
-------------0-----------------------0------------------------------------
* pinch harmonic played to the left of the center single coil(if you have one)

-------------------------------------------------------
-------------------------------------------------------
-------------------------------------------------------
-2----------6------6-----6h7----------6------6h7-9h10--
-0-00000000---0000---000-----00000000---0000-----------
-------------------------------------------------------
   pm......   ....   ...     ........   ....

-----------------------------------------------------
-----------------------------------------------------
-----------------------------------------------------
----------6------6-----6h7----------6------6h7-9h10--
--00000000---0000---000-----00000000---0000----------
-----------------------------------------------------X3
  pm......   ....   ...     ........   ....

Clean part (not too sure about this part)
----------------------------------------------------
-----0-----------0-----------0-----------0----------
---0---0-4/5---0---0-4/5----------54---------54---
---------------------------7---7-------7---7--------
----------------------------------------------------
-1-----------1-----------5-----------5--------------X2

Gtr1
-------------------------------------------------------------------------
-------------------------------------------------------------------------
-------------------------------------------------------------------------
-------------------------------------------------------------------------
-333-333-3-3-5555--333-333-3-3-5555--777-777-7-7-::::--777-777-7-7-::::--
-111-111-1-1-3333--111-111-1-1-3333--555-555-5-5-8888--555-555-5-5-8888--X2
: = 10

-------------------------------------------
-------------------------------------------
-------------------------------------------
-------------------------------------------
-333-333-3-3-5555--333-333-3-3-------------
-111-111-1-1-3333--111-111-1-1-*let ring*--

Gtr2
-12h13p12---12h13p12----12h13p12h15p12ph13p12--
-----------------------------------------------
---------10----------10------------------------
-----------------------------------------------
-----------------------------------------------
-----------------------------------------------

------------------------------------------------
-12h13p12----12h13p12----12h13p12h15p12ph13p12--
----------14----------14------------------------
------------------------------------------------
------------------------------------------------
------------------------------------------------

-12h13p12---12h13p12----12h13p12h15p12ph13p12--
-----------------------------------------------
---------10----------10------------------------
-----------------------------------------------
-----------------------------------------------
-----------------------------------------------

------------------------------------------------------------------------
-12h13p12----12h13p12----12h13p12h15p12ph13p12-12h13p12----12h13p12-----
----------14----------14--------------------------------14----------14--
------------------------------------------------------------------------
------------------------------------------------------------------------
------------------------------------------------------------------------

Back to both guitars.
--------------------------------------------------------------------------
-----------------------------------------------*--------------------------
-------------------0---------------------------7--------------------------
---5-6-5---5---------------5-6-5---5-------5-6-----5-6-5---5---3-4-3---3--
-3-------3-----7-8---8-7-3-------3-----7-8-------3-------3---1-------1----
-------------0-----------------------0------------------------------------
trem......................................................................
* pinch harmonic

------------------------------------------------------
------------------------------------------------------
------------------------------------------------------
-----------6------6-----6h7----------6------6h7-9h10--
--00000000---0000---000-----00000000---0000-----------
------------------------------------------------------X4
  pm......   ....   ...     ........   ....

Clean part (not too sure about this part)
--------------------------------------------------
-----0-----------0-----------0-----------0--------
---0---0-4/5---------54---0---0-4/5---------54--
---------------7---7-------------------7---7------
--------------------------------------------------
-1-----------5-----------1-----------5------------X3

----------------------------------
----------------------------------
----------------------------------
----------------------------------
-3-3-3-3-3-3-3-3-3-3-3-3-3-3-3-3--
-1-1-1-1-1-1-1-1-1-1-1-1-1-1-1-1--
 pm. . . . . . . . . . . . . . .

----------------------------------
----------------------------------
----------------------------------
----------------------------------
-3-3-3-3-3-3-3-3-3-3-3-3-3-3-3-3--
-1-1-1-1-1-1-1-1-1-1-1-1-1-1-1-1--

-------------------------------------------------------
-------------------------------------------------------
-------------------------------------------------------
----------8--------5-----------------8--------5--------
-7--------6--------3--------7--------6--------3--------
-5--------------------------5--------------------------
 trem..................................................

--------------------------------------------
--------------------------------------------
----0--0-0----0-0-0-0-----0--0-0----0-0-0-0-
---7--7-7----7-----7----7--7-7----7------7--
--------------------------------------------
-5---------5----------5---------5-----------


-------------------------------------------------------
-------------------------------------------------------
-------------------------------------------------------
----------8--------5-----------------8--------5--------
-7--------6--------3--------7--------6--------3--------
-5--------------------------5--------------------------
 trem..................................................


------------------------------------------------------------------
------------------------------------------------------------------
----0--0-0----0-0-0-0-----0--0-0----0-0-0-0---:-:--:-:--:-:--:-:--
---7--7-7----7-----7----7--7-7----7------7----8-8--8-8--8-8--8-8--
----------------------------------------------8-8--8-8--8-8--8-8--
-5---------5----------5---------5-----------5/6-6--6-6--6-6--6-6--
: = 10

-------------------------------------------------------------------
-------------------------------------------------------------------
----0--0-0----0-0-0-0-----0--0-0----0-0-0-0---:-:--:-:--:-:/#-#-#--
---7--7-7----7-----7----7--7-7----7------7----8-8--8-8--8-8/:-:-:--
----------------------------------------------8-8--8-8--8-8/:-:-:--
-5---------5----------5---------5-----------5/6-6--6-6--6-6/8-8-8--
: = 10
# = 12

That's all for this song it should all be pretty accurate any corrections:
septic_flesh241@hotmail.com

  Visit MetalTabs.com for more metal tablature

bottom separator

Contact Us | Privacy Policy | Disclaimer | Legal Notice
Copyright © 2001-2014 MetalTabs.com. All Rights Reserved.