top separator

Home

Forum

What's New

Submit a Tab

FAQ

Links

Contact Us

Link to Us

MuSpy.com

MetalTabs.com logo

Bands

0-9

A

B

C

D

E

F

G

H

I

J

K

L

M

N

O

P

Q

R

S

T

U

V

W

X

Y

Z

Search

What

Where
 

Demolition Hammer - "Aborticide" Guitar Tab

Plain Text Version
More Demolition Hammer Tabs

Hits: 4074
Rated: 5.00 out of 5 (2 votes)
Updated: 2005-10-12 06:48:07

 

By:

MetalThrashingMad

sendpm.gif

email.gif

Important note
We did our best to reach Demolition Hammer and ask for their permission to publish this tab. Unfortunately they did not respond to our requests or we could not find a way to contact them. This tab is available online until Demolition Hammer tells us to take it down.


#----------------------------------PLEASE NOTE---------------------------------#
#This file is the author's own work and represents their interpretation of the #
#song. You may only use this file for private study, scholarship, or research. #
#Unless specified otherwise, this is NOT an official tab from the band members.#
#------------------------------------------------------------------------------#

  Visit MetalTabs.com for more metal tablature
  
ABORTICIDE
                        As recorded by Demolition Hammer
                   (From the 1992 Album EPIDEMIC OF VIOLENCE)
                             (c) 1992 Century Media

Arranged by Demolition Hammer
Transcribed by Steve Rubaszek
Version: 1.0 - October 10, 2005

Gtr I (D# G# C# F# A# D#) - 'Guitar 1'
Gtr II (D# G# C# F# A# D#) - 'Guitar 2'
Gtr III (D# G# C# F# A# D#) - 'Lead'


 Intro
  Fast Metal Q=260
 4/4
  Gtrs I, II
  PM----|    PM----|      PM--------------------|
|-----------------------|----------------------------|
|-----------------------|----------------------------|
|-----------------------|----------------------------|
|-----------------------|-------------------------3--|
|---------4----------5--|-------------------------1--|
|-2-2-2-2-2--3-3-3-3-3--|-2-2-2-2-2-2-2-2-2-2-2-2----|


  PM----|    PM----|      PM----------------------------|
|-----------------------|------------------------------------|
|-----------------------|------------------------------------|
|-----------------------|------------------------------------|
|-----------------------|------------------------------------|
|---------4----------5--|-2-2-2-2---------1-1-1-1------------|
|-2-2-2-2-2--3-3-3-3-3--|---------3-3-3-3---------2-2-2-2----|


   Pre-Chorus
    Slower Q=240
    PM--------------------|      PM--------------------|
||-----------------------------|----------------------------|
||o----------------------------|----------------------------|
||-----------------------------|----------------------------|
||-----------------------------|-------------------------3--|
||o-------------------------5--|-------------------------1--|
||--3-3-3-3-0-0-0-0-2-2-2-2-3--|-3-3-3-3-0-0-0-0-2-2-2-2----|


  PM--------------------|      PM----------------------------|
|----------------------------|----------------------------------||
|----------------------------|---------------------------------o||
|----------------------------|----------------------------------||
|----------------------------|----------------------------------||
|-------------------------5--|-2-2-2-2---------1-1-1-1---------o||
|-3-3-3-3-0-0-0-0-2-2-2-2-3--|---------3-3-3-3---------2-2-2-2--||


    $
    PM--------------------|
||-----------------------------|
||o----------------------------|
||-----------------------------|
||-----------------------------|
||o-------------------------5--|
||--3-3-3-3-0-0-0-0-2-2-2-2-3--|


  PM--------------------|      PM--------------------|
|----------------------------|----------------------------|
|----------------------------|----------------------------|
|----------------------------|----------------------------|
|-------------------------3--|----------------------------|
|-------------------------1--|-------------------------5--|
|-3-3-3-3-0-0-0-0-2-2-2-2----|-3-3-3-3-0-0-0-0-2-2-2-2-3--|


  PM-------------------------------
|---------------------------------|
|---------------------------------|
|---------------------------------|
|---------------------------------|
|-2-2-2-2---------1-1-1-1---------|
|---------3-3-3-3---------2-2-2-2-|


 -----------------------|      PM--------------------|
|----------------------------|------------------------------|
|----------------------------|------------------------------|
|----------------------------|------------------------------|
|----------------------------|-------------------------3----|
|-------------------------5--|-------------------------1----|
|-3-3-3-3-0-0-0-0-2-2-2-2-3--|-3-3-3-3-0-0-0-0-2-2-2-2------|


  1.
                               PM----------------------------|
|----------------------------|----------------------------------||
|----------------------------|---------------------------------o||
|----------------------------|----------------------------------||
|----------------------------|----------------------------------||
|-------------------------5--|-2-2-2-2---------1-1-1-1---------o||
|-3-3-3-3-0-0-0-0-2-2-2-2-3--|---------3-3-3-3---------2-2-2-2--||


 2.
|----------------------------|---------------||
|----------------------------|---------------||
|----------------------------|---------------||
|----------------------------|-4-----3-------||
|-------------------------5--|-2--5--1--4----||
|-3-3-3-3-0-0-0-0-2-2-2-2-3--|----3-----2----||


   Chorus
||-----------|-----------------|----------|------------|
||o----------|-----------------|----------|------------|
||-----------|-----------------|----------|------------|
||-----------|--------1-1-1-1--|----------|------------|
||o-2--------|-(2)----1-1-1-1--|-3--------|-6----5--3--|
||--0--------|-(0)-------------|-1--------|-4----3--1--|


                                          PM|    PM|
|----------|-----------------|----------|-----------------||
|----------|-----------------|----------|----------------o||
|----------|-----------------|----------|-----------------||
|----------|--------1-1-1-1--|----------|-----------------||
|-2--------|-(2)----1-1-1-1--|-3--------|-----6------5---o||
|-0--------|-(0)-------------|-1--------|-4-4-4--3-3-3----||


    PM----------------------------------------------|
||----------------------------------|-----------------------|
||o---------------------------------|-----------------------|
||----------------------------------|-----------------------|
||----------------------------------|-----------------4--5--|
||o---------------------------------|-----------------2--3--|
||--0-0-0-0-0-0-0-0-4-4-4-4-4-4-4-4-|-3-3-3-3-3-3-3-3-------|


  PM----------------------------------------------|
|---------------------------------|--------------------------||
|---------------------------------|-------------------------o||
|---------------------------------|--------------------------||
|---------------------------------|--------------------------||
|---------------------------------|-----------------4--5----o||
|-0-0-0-0-0-0-0-0-4-4-4-4-4-4-4-4-|-3-3-3-3-3-3-3-3-2--3-----||


  Q=260
To Coda
  PM----|    PM----|      PM--------------------|
|-----------------------|----------------------------|
|-----------------------|----------------------------|
|-----------------------|----------------------------|
|-----------------------|-------------------------3--|
|---------4----------5--|-------------------------1--|
|-2-2-2-2-2--3-3-3-3-3--|-2-2-2-2-2-2-2-2-2-2-2-2----|


                                            D.S. al Coda
  PM----|    PM----|      PM----------------------------|
|-----------------------|---------------------------------||
|-----------------------|---------------------------------||
|-----------------------|---------------------------------||
|-----------------------|---------------------------------||
|---------4----------5--|-2-2-2-2---------1-1-1-1---------||
|-2-2-2-2-2--3-3-3-3-3--|---------3-3-3-3---------2-2-2-2-||


   Interlude
    Q=240
    &
    PM--------------------------|      PM--------------------------|
||------------------|----------------|-----------------|-----------------|
||o-----------------|----------------|-----------------|-----------------|
||------------------|----------------|-----------------|-----------------|
||------------------|----------------|-----------------|-----------------|
||o-----------------|-------------3--|-----------------|-------------3---|
||--2-2-2-2-2-2-2-2-|-2-2-2-2-1-2----|-2-2-2-2-2-2-2-2-|-2-2-2-2-1-2-----|


  PM--------------------------|      PM------------|
                                                                       3x
|-----------------|----------------|-----------------|-----------------||
|-----------------|----------------|-----------------|----------------o||
|-----------------|----------------|-----------------|-----------------||
|-----------------|----------------|-----------------|-----------------||
|-----------------|-------------3--|-----------------|-6-4-3-6-4---3--o||
|-2-2-2-2-2-2-2-2-|-2-2-2-2-1-2----|-2-2-2-2-2-2-2-2-|-----------6-----||


  PM--------------------------|      PM--------------------------|
|-----------------|----------------|-----------------|----------------|
|-----------------|----------------|-----------------|----------------|
|-----------------|----------------|-----------------|----------------|
|-----------------|----------------|-----------------|----------------|
|-----------------|-------------3--|-----------------|-------------3--|
|-2-2-2-2-2-2-2-2-|-2-2-2-2-1-2----|-2-2-2-2-2-2-2-2-|-2-2-2-2-1-2----|


  PM--------------------------|      PM------------|         PM----|
|-----------------|----------------|-----------------|---------------|
|-----------------|----------------|-----------------|---------------|
|-----------------|----------------|-----------------|---------------|
|-----------------|----------------|-----------------|---------------|
|-----------------|-------------3--|-----------------|-5--4----------|
|-2-2-2-2-2-2-2-2-|-2-2-2-2-1-2----|-2-2-2-2-2-2-2-2-|-3--2--3-2-3-2-|


  Gtr I
|-----------------|-----------------|-----------------|-----------------|
|-----------------|-----------------|-----------------|-----------------|
|-----------------|-----------------|-----------------|-----------------|
|-----------------|-----------------|-----------------|-----------------|
|-----------------|-----------------|-----------------|-----------------|
|-----------------|-----------------|-----------------|-----------------|
|
| Gtr II
|     PM    PM      PM    PM              PM    PM      PM    PM
|-----------------|-----------------|-----------------|-----------------|
|-----------------|-----------------|-----------------|-----------------|
|-----------------|-----------------|-----------------|-----------------|
|-------4S3-------|---4S3-----------|-------4S3-------|---4S3-----------|
|-5S4---2S1-2-5S4-|---2S1-2-4S5-4S5-|-5S4---2S1-2-5S4-|---2S1-2-4S5-4S5-|
|-3S2-2-------3S2-|-2-------2S3-2S3-|-3S2-2-------3S2-|-2-------2S3-2S3-|


    Gtrs I, II
        PM    PM      PM    PM              PM    PM      PM    PM
                                                                            3x
||------------------|-----------------|-----------------|-------------------||
||o-----------------|-----------------|-----------------|------------------o||
||------------------|-----------------|-----------------|-------------------||
||--------4S3-------|---4S3-----------|-------4S3-------|---4S3-------------||
||o-5S4---2S1-2-5S4-|---2S1-2-4S5-4S5-|-5S4---2S1-2-5S4-|---2S1-2-4S5-4S5--o||
||--3S2-2-------3S2-|-2-------2S3-2S3-|-3S2-2-------3S2-|-2-------2S3-2S3---||


    PM----------------------------------------------|
||----------------------------------|-----------------------|
||o---------------------------------|-----------------------|
||----------------------------------|-----------------------|
||----------------------------------|-----------------4--5--|
||o---------------------------------|-----------------2--3--|
||--0-0-0-0-0-0-0-0-4-4-4-4-4-4-4-4-|-3-3-3-3-3-3-3-3-------|


  PM----------------------------------------------|
|---------------------------------|--------------------------||
|---------------------------------|-------------------------o||
|---------------------------------|--------------------------||
|---------------------------------|--------------------------||
|---------------------------------|-----------------4--5----o||
|-0-0-0-0-0-0-0-0-4-4-4-4-4-4-4-4-|-3-3-3-3-3-3-3-3-2--3-----||


        PM    PM      PM    PM              PM    PM      PM    PM
                                                                            5x
||------------------|-----------------|-----------------|-------------------||
||o-----------------|-----------------|-----------------|------------------o||
||------------------|-----------------|-----------------|-------------------||
||--------4S3-------|---4S3-----------|-------4S3-------|---4S3-------------||
||o-5S4---2S1-2-5S4-|---2S1-2-4S5-4S5-|-5S4---2S1-2-5S4-|---2S1-2-4S5-4S5--o||
||--3S2-2-------3S2-|-2-------2S3-2S3-|-3S2-2-------3S2-|-2-------2S3-2S3---||


 Breakdown
  Q=215
  Gtr I
  PM------------|       PM|     PM------------------|
|-----------------|-----------------|-----------------|
|-----------------|-----------------|-----------------|
|-----------------|-----------------|-----------------|
|-----------------|-----------------|-----------------|
|-2-------2-------|-5S4-----4S3-----|-2-------2-------|
|-0-0-0-0-0-0-0-0-|-3S2-0-0-2S1-0-0-|-0-0-0-0-0-0-0-0-|
|
| Gtr II
|                                     PM------------|
|-----------------|-----------------|-----------------|
|-----------------|-----------------|-----------------|
|-----------------|-----------------|-----------------|
|-----------------|-----------------|-----------------|
|-----------------|-----------------|-2-------2-------|
|-----------------|-----------------|-0-0-0-0-0-0-0-0-|


      PM|     PM------------------|
|-----------------|------------------|
|-----------------|------------------|
|-----------------|------------------|
|-----------------|------------------|
|-5S4-----4S3-----|-2-------2--------|
|-3S2-0-0-2S1-0-0-|-0-0-0-0-0-0-0-0--|
|
|     PM|     PM------------------|
|-----------------|------------------|
|-----------------|------------------|
|-----------------|------------------|
|-----------------|------------------|
|-5S4-----4S3-----|-2-------2--------|
|-3S2-0-0-2S1-0-0-|-0-0-0-0-0-0-0-0--|


  Gtrs I, II
      PM--------------------------|       PM|     PM---
|-----------------|-----------------|-----------------|
|-----------------|-----------------|-----------------|
|-----------------|-----------------|-----------------|
|-4S5-------------|-----------------|-----------------|
|-2S3-----2-------|-2-------2-------|-5S4-----4S3-----|
|-----0-0-0-0-0-0-|-0-0-0-0-0-0-0-0-|-3S2-0-0-2S1-0-0-|


 ---------------|       PM|     PM|
|-----------------|------------------||
|-----------------|------------------||
|-----------------|------------------||
|-----------------|-4S5-----5S6------||
|-2-------2-------|-2S3-----3S4------||
|-0-0-0-0-0-0-0-0-|-----0-0-----0-0--||


 Solo
  Gtr III
   \2
|-------------------|---------------------|
|-------------------|---------------------|
|-------------------|---------------------|
|-------------------|---------------------|
|-------------------|---------------------|
|-[3]---------------|-([3])---------------|
|
| Gtrs I, II
|  PM-------------|           PM|     PM---
|-------------------|---------------------|
|-------------------|---------------------|
|-------------------|---------------------|
|-------------------|---------------------|
|--2--------2-------|---5S==4-----4S3-----|
|--0--0-0-0-0-0-0-0-|---3S==2-0-0-2S1-0-0-|


            \2
|-------------------------|---------------------|
|-[8]b9---([8])-----------|-([8])---------------|
|-------------------------|---------------------|
|-------------------------|---------------------|
|-------------------------|---------------------|
|-------------------------|---------------------|
|
|-----------------------|           PM|     PM|
|-------------------------|---------------------|
|-------------------------|---------------------|
|-------------------------|---------------------|
|-------------------------|---4---5-----5-6-----|
|--2--------------2-------|---2S==3-----3S4-----|
|--0----0---0---0-0-0-0-0-|---------0-0-----0-0-|


|-------------------|---------------------|
|-------------------|---------------------|
|-------------------|-------------------9-|
|-------------------|----8----8-11-8-11---|
|-------7-10-7-10-7-|-10---10-------------|
|-9-6-9-------------|---------------------|
|
| PM--------------|         PM|       PM---
|-------------------|---------------------|
|-------------------|---------------------|
|-------------------|---------------------|
|-------------------|---------------------|
|-2--------2--------|--5S4-------4S3------|
|-0-0-0-0--0-0--0-0-|--3S2--0-0--2S1--0-0-|


|--------------------|-8b10-------(8)pb10r======|
|------8---8-11-8-11-|--------------------------|
|----9---9-----------|--------------------------|
|-11-----------------|--------------------------|
|--------------------|--------------------------|
|--------------------|--------------------------|
|
|-----------------|           PM|           PM|
|--------------------|--------------------------|
|--------------------|--------------------------|
|--------------------|--------------------------|
|--------------------|-4----5------5------6-----|
|--2-------2---------|-2S===3------3S=====4-----|
|--0-0-0-0-0--0-0--0-|--------0-0-----------0-0-|


|-12-15-12----12-15-12----|-12-15-12----12h15p12----12h15p12----|
|----------14----------14-|----------14----------14----------14-|
|-------------------------|-------------------------------------|
|-------------------------|-------------------------------------|
|-------------------------|-------------------------------------|
|-------------------------|-------------------------------------|
|
|  PM------------------|           PM|               PM----------
|-------------------------|-------------------------------------|
|-------------------------|-------------------------------------|
|-------------------------|-------------------------------------|
|-------------------------|-------------------------------------|
|--2-----------2----------|--5S=4--------4S====3----------------|
|--0--0--0--0--0--0--0--0-|--3S=2--0--0--2S====1-----0-----0----|


|12h15p12----12h15p12----12h15p12----12--------|15-12-15-12-15-12-15b18-(15)---|
|---------14----------14----------14----14---12|-------------------------------|
|----------------------------------------------|-------------------------------|
|----------------------------------------------|-------------------------------|
|----------------------------------------------|-------------------------------|
|----------------------------------------------|-------------------------------|
|
|------------------------------------------|                 PM---|         PM|
|----------------------------------------------|-------------------------------|
|----------------------------------------------|-------------------------------|
|----------------------------------------------|-------------------------------|
|----------------------------------------------|-4-----5--------------5---6----|
|-2-----------------------2--------------------|-2S====3--------------3S==4----|
|-0-----0-----0-----0-----0-----0-----0----0---|-------------0-----0--------0-0|


|-14-16-14h16p14----14-16---17-14h16p14----|
|----------------16---------------------14-|
|------------------------------------------|
|------------------------------------------|
|------------------------------------------|
|------------------------------------------|
|
|  PM--------------------------------|
|------------------------------------------|
|------------------------------------------|
|------------------------------------------|
|------------------------------------------|
|--2-----------------2---------------------|
|--0--0--0-----0-----0----0-----0-----0----|


|-14-16---17-16-14----14-------------------|
|------------------16----16-17pb18r========|
|------------------------------------16----|
|---------------------------------------18-|
|------------------------------------------|
|------------------------------------------|
|
|             PM----|              PM-------
|------------------------------------------|
|------------------------------------------|
|------------------------------------------|
|------------------------------------------|
|--5S===4--------------4S====3-------------|
|--3S===2-----0-----0--2S====1-----0--0----|



|------------------------------|--------------------------|
|------------------------------|--------------------------|
|-18-16----16pb17r===16b18-----|-(16)pb18r================|
|-------18--------18-----------|--------------------------|
|------------------------------|--------------------------|
|------------------------------|--------------------------|
|
|----------------------------|              PM|     PM|
|------------------------------|--------------------------|
|------------------------------|--------------------------|
|------------------------------|--------------------------|
|------------------------------|---4------5-----5-6-------|
|--2---------------2-----------|---2S=====3-----3S4-------|
|--0--0--0--0------0--0----0-0-|------------0-0-----0-0---|


  Gtr III
                                         >
    \3
|------------------------------------|------------------------------------||
|------------------------------------|------------------------------------||
|-(16)-------------------------------|-(16)-------------------------------||
|------------------------------------|------------------------------------||
|------------------------------------|------------------------------------||
|------------------------------------|------------------------------------||
|
| Gtr I
|   PM----------------------------------------------------|
|------------------------------------|------------------------------------||
|------------------------------------|------------------------------------||
|------------------------------------|------------------------------------||
|------------------------------------|------------------------------------||
|---5----------------7---------------|---5----------------3---------------||
|---3----------------5---------------|---3----------------1---------------||
|
| Gtr II
|   PM------------------------------------------------------------------|
|------------------------------------|------------------------------------||
|------------------------------------|------------------------------------||
|------------------------------------|------------------------------------||
|------------------------------------|------------------------------------||
|------------------------------------|------------------------------------||
|---3--3-3-3-3-3-3-3-5-5-5-5-5-5-5-5-|---3--3-3-3-3-3-3-3-1-1-1-1-1-1-1-1-||


   Interlude
    Gtrs I, II
    PM----|    PM----|      PM----|    PM----|
                                                   4x
||------------------------|------------------------||
||o-----------------------|-----------------------o||
||------------------------|------------------------||
||------------------------|------------------------||
||o---------5----------7--|---------5----------3--o||
||--3-3-3-3-3--3-3-3-3-5--|-3-3-3-3-3--3-3-3-3-1---||


  PM|   PM--|      PM--------|   PM|
|----------------|----------------------|
|----------------|----------------------|
|----------------|----------------------|
|----------------|----------------------|
|-----5-------7--|-------------5-----3--|
|-3-3-3-3-3-3-5--|-3-3-3-3-3-3-3-3-3-1--|


    PM----|    PM----|      PM----|    PM----|
                                                   4x
||------------------------|------------------------||
||o-----------------------|-----------------------o||
||------------------------|------------------------||
||------------------------|------------------------||
||o---------5----------7--|---------5----------3--o||
||--3-3-3-3-3--3-3-3-3-5--|-3-3-3-3-3--3-3-3-3-1---||


   Verse
    PM----|     PM      PM----|     PM
||--------------------|-------------------|
||o-------------------|-------------------|
||--------------------|-------------------|
||--------------------|-------------------|
||o---------5S4---8S7-|---------5S4---4S5-|
||--0-0-0-0-3S2-0-6S5-|-0-0-0-0-3S2-0-2S3-|


  PM----|     PM      PM----|     PM
|-------------------|--------------------||
|-------------------|-------------------o||
|-------------------|--------------------||
|---------------4S5-|--------------------||
|---------5S4---2S3-|---------5S4---4S5-o||
|-0-0-0-0-3S2-0-----|-0-0-0-0-3S2-0-2S3--||


    Q=240
    PM----------------------------------------------|
                                                       4x
||--------------------------|--------------------------||
||o-------------------------|-------------------------o||
||--------------------------|--------------------------||
||--------------------------|--------------------------||
||o-------------------1-1-1-|-------------------------o||
||--3-3-3-4-4-4-3-3-3-------|-3-3-3-4-4-4-3-3-3-1-1-1--||


    PM----|     PM      PM----|     PM
||--------------------|-------------------|
||o-------------------|-------------------|
||--------------------|-------------------|
||--------------------|-------------------|
||o---------5S4---8S7-|---------5S4---4S5-|
||--0-0-0-0-3S2-0-6S5-|-0-0-0-0-3S2-0-2S3-|


  PM----|     PM      PM----|     PM
|-------------------|--------------------||
|-------------------|-------------------o||
|-------------------|--------------------||
|---------------4S5-|--------------------||
|---------5S4---2S3-|---------5S4---4S5-o||
|-0-0-0-0-3S2-0-----|-0-0-0-0-3S2-0-2S3--||


 Pre-Chorus
  Gtr I
|----------------------------|----------------------------|
|----------------------------|----------------------------|
|----------------------------|----------------------------|
|----------------------------|----------------------------|
|----------------------------|----------------------------|
|----------------------------|----------------------------|
|
| Gtr II
| PM--------------------|      PM--------------------|
|----------------------------|----------------------------|
|----------------------------|----------------------------|
|----------------------------|----------------------------|
|----------------------------|-------------------------3--|
|-------------------------5--|-------------------------1--|
|-3-3-3-3-0-0-0-0-2-2-2-2-3--|-3-3-3-3-0-0-0-0-2-2-2-2----|


                               PM   PM-|
|----------------------------|--------------|
|----------------------------|--------------|
|----------------------------|--------------|
|----------------------------|-4----3-------|
|----------------------------|-2----1--4----|
|----------------------------|---------2----|
|
| PM--------------------|      PM   PM-|
|----------------------------|--------------|
|----------------------------|--------------|
|----------------------------|--------------|
|----------------------------|-4----3-------|
|-------------------------5--|-2----1--4----|
|-3-3-3-3-0-0-0-0-2-2-2-2-3--|---------2----|


    Gtrs I, II
    PM--------------------|
||-----------------------------|
||o----------------------------|
||-----------------------------|
||-----------------------------|
||o-------------------------5--|
||--3-3-3-3-0-0-0-0-2-2-2-2-3--|


  PM--------------------|      PM--------------------|
|----------------------------|----------------------------|
|----------------------------|----------------------------|
|----------------------------|----------------------------|
|-------------------------3--|----------------------------|
|-------------------------1--|-------------------------5--|
|-3-3-3-3-0-0-0-0-2-2-2-2----|-3-3-3-3-0-0-0-0-2-2-2-2-3--|


  PM-------------------------------
|---------------------------------|
|---------------------------------|
|---------------------------------|
|---------------------------------|
|-2-2-2-2---------1-1-1-1---------|
|---------3-3-3-3---------2-2-2-2-|


 -----------------------|      PM--------------------|
|----------------------------|------------------------------|
|----------------------------|------------------------------|
|----------------------------|------------------------------|
|----------------------------|-------------------------3----|
|-------------------------5--|-------------------------1----|
|-3-3-3-3-0-0-0-0-2-2-2-2-3--|-3-3-3-3-0-0-0-0-2-2-2-2------|


  1.
                               PM----------------------------|
|----------------------------|----------------------------------||
|----------------------------|---------------------------------o||
|----------------------------|----------------------------------||
|----------------------------|----------------------------------||
|-------------------------5--|-2-2-2-2---------1-1-1-1---------o||
|-3-3-3-3-0-0-0-0-2-2-2-2-3--|---------3-3-3-3---------2-2-2-2--||


 2.
|----------------------------|---------------||
|----------------------------|---------------||
|----------------------------|---------------||
|----------------------------|-4-----3-------||
|-------------------------5--|-2--5--1--4----||
|-3-3-3-3-0-0-0-0-2-2-2-2-3--|----3-----2----||


   Chorus
||-----------|---------------|----------|------------|
||o----------|---------------|----------|------------|
||-----------|---------------|----------|------------|
||-----------|------1-1-1-1--|----------|------------|
||o-2--------|-2----1-1-1-1--|-3--------|-6----5--3--|
||--0--------|-0-------------|-1--------|-4----3--1--|


                                          PM|    PM|
|----------|-----------------|----------|-----------------||
|----------|-----------------|----------|----------------o||
|----------|-----------------|----------|-----------------||
|----------|--------1-1-1-1--|----------|-----------------||
|-2--------|-(2)----1-1-1-1--|-3--------|-----6------5---o||
|-0--------|-(0)-------------|-1--------|-4-4-4--3-3-3----||


    PM----------------------------------------------|
||----------------------------------|-----------------------|
||o---------------------------------|-----------------------|
||----------------------------------|-----------------------|
||----------------------------------|-----------------4--5--|
||o---------------------------------|-----------------2--3--|
||--0-0-0-0-0-0-0-0-4-4-4-4-4-4-4-4-|-3-3-3-3-3-3-3-3-------|


  PM----------------------------------------------|
|---------------------------------|--------------------------||
|---------------------------------|-------------------------o||
|---------------------------------|--------------------------||
|---------------------------------|--------------------------||
|---------------------------------|-----------------4--5----o||
|-0-0-0-0-0-0-0-0-4-4-4-4-4-4-4-4-|-3-3-3-3-3-3-3-3-2--3-----||


 Outro
  Gtr I
  PM----------------------------------------------|
|---------------------------------|-----------------------|
|---------------------------------|-----------------------|
|---------------------------------|-----------------------|
|---------------------------------|-----------------4--5--|
|---------------------------------|-----------------2--3--|
|-4-4-3-3-3-3-3-3-6-6-3-3-3-3-3-3-|-4-4-3-3-3-3-3-3-------|
|
| Gtr II
| PM--------------------------------|
|---------------------------------|-----------------------|
|---------------------------------|-----------------------|
|---------------------------------|-----------------------|
|---------------------------------|-----------------4--5--|
|-6---------------8---------------|-6---------------2--3--|
|-4---------------6---------------|-4---------------------|


|----------|-----*|
|----------|-----*|
|----------|-----*|
|----------|-----*|
|-2--------|-----*|
|-0--------|-----*|

Tablature Legend
----------------
 h   - hammer-on
 p   - pull-off
 b   - bend
 pb  - pre-bend
 r   - bend release (if no number after the r, then release immediately)
 /  - slide into or out of (from/to "nowhere")
 s   - legato slide
 S   - shift slide
<n>  - natural harmonic
[n]  - artificial harmonic
n(n) - tapped harmonic
 ~   - vibrato
 tr  - trill
 T   - tap
 TP  - trem. picking
 PM  - palm muting
n/  - tremolo bar dip; n = amount to dip
 n  - tremolo bar down
 n/  - tremolo bar up
/n  - tremolo bar inverted dip
 =   - hold bend; also acts as connecting device for hammers/pulls
 <>  - volume swell (louder/softer)
 x   - on rhythm slash represents muted slash
 o   - on rhythm slash represents single note slash

Misc Legend
-----------
 |  - bar
||  - double bar
||o - repeat start
o|| - repeat end
*|  - double bar (ending)
 :  - bar (freetime)
 $  - Segno
 &  - Coda
Tempo markers - <E/E./Q/Q./H/H.> = BPM(8/16=s8/s16),
where s8 = swing 8ths, s16 = swing 16ths

  Visit MetalTabs.com for more metal tablature

bottom separator

Contact Us | Privacy Policy | Disclaimer | Legal Notice
Copyright © 2001-2014 MetalTabs.com. All Rights Reserved.