top separator

Home

Forum

What's New

Submit a Tab

FAQ

Links

Contact Us

Link to Us

MuSpy.com

MetalTabs.com logo

Bands

0-9

A

B

C

D

E

F

G

H

I

J

K

L

M

N

O

P

Q

R

S

T

U

V

W

X

Y

Z

Search

What

Where
 

Arghoslent - "Incorrigible Bigotry" Guitar Tab

Plain Text Version
More Arghoslent Tabs

Hits: 3416
Rated: 3.38 out of 5 (8 votes)
Updated: 2005-10-12 06:41:12

 

By:

Transient

sendpm.gif

email.gif

Important note
This tab is available online because we obtained explicit permission from Arghoslent or their label.


#----------------------------------PLEASE NOTE---------------------------------#
#This file is the author's own work and represents their interpretation of the #
#song. You may only use this file for private study, scholarship, or research. #
#Unless specified otherwise, this is NOT an official tab from the band members.#
#------------------------------------------------------------------------------#

  Visit MetalTabs.com for more metal tablature
  
Band:  Arghoslent
Album: Incorrigble Bigotry
Song:  Incorrigble Bigotry

Copyright (c) Drakkar Productions 2002
Version 1.0 - Sunday October 9 2005 12:02PM

Transcribed By: Transient
Email:         transientblur@netscape.net

.  - palm mute           /  - slide up to
\  - slide down to       ~  - vibrato
h  - hammer on           b  - Bend
p  - pull off            Suffixes for bend
t  - tap                 f  - full bend    h - half bend
ph - pinched harmonic    q  - quarter bend t - tap bend
*  - see comment         ^  - Hold bend    r release bend
x  - Stuccatto           ~  - vibrato bend
,  - slight palm mute    () - ghost note, sustained note
"  - tremolo note        <> - Trill

Tuning Whole Step Down DGCFAD

Notes:This song rules,and its well worth downloading/
buying the album if you can find it. Enjoy, Argho fans!

First Riff
|-------------------------|
|-------------------------|
|-------------------------|
|-------------------------|
|--2"--5"-3"-5"-0"-2"-----|
|-------------------------|

|-------------------------|
|-------------------------|
|-------------------------|
|----------5"---2"--------|
|-5"-3"-5"----------------|
|-------------------------|

Second riff
|----------------------------|
|----------------------------|
|-----------------------2--4-|
|--7"--7/5---5/4--0-2-4------|
|--5---5/3"--3/2"------------|
|----------------------------|

Third Riff
|----------------------------|
|----------------------------|
|----------------------------|
|-4-44-0-2-----4-44-0-2------|
|-2--------4-5-2--------4-5--|
|----------------------------|

|---------------------------|
|---------------------------|
|---------------------------|
|-4-44-0-2------------------|
|-2--------45---------------|
|--------------3-2-0-2-3-5--|

Fourth Riff
|------------------------------|
|------------------------------|
|------4/6----------6----6-6-6-|
|-4-44-----4-44-------4--------|
|-2-22-----2-22----------4-4-4-|
|------------------------------|

|----------------------|
|----7-------8---10----|
|--6----9-0----0-------|
|----------------------|
|------------------=---|
|----------------------|

|------------------------------|
|------------------------------|
|------4/6----------6----6-6-6-|
|-4-44-----4-44-------4--------|
|-2-22-----2-22----------4-4-4-|
|------------------------------|

|---------------|
|---------------|
|---------------|
|--7-6-4--2-----|
|--5-4-2--0-----|
|---------------|


Chords riff
|------------------------|
|------------------------|
|-------------2----------|
|-4-4444----2------------|
|-2-2222--------4-4444---|
|---------3-----2-2222---|

|---------------------------------|
|---------------------------------|
|---------------------------------|
|-4-4444-----------------------6--|
|-2-2222--4-4444-5-5555-7-7777-4--|
|---------2-2222-3-3333-5-5555----|

Lead over it

|---------------------------------------------|
|---------------------------------------------|
|--------------7------7-----------------------|
|------------9---7/9----9----7----------------|
|-7-9-7-------------------10---9----7---------|
|-------10-7---------------------10---10--5/7-|

First time through repeat again. Second time continue on to
this part

|----------------------------------|
|----------------------------------|
|-4---------------6----------------|
|---444444-444444---444444-444444--|
|----------------------------------|
|----------------------------------|

|--------------------------------|
|--------------------------------|
|-9--------6--------7-6h7p6------|
|---444444---444444---------7/9--|
|--------------------------------|
|--------------------------------|

Solo is just sweeping and then what i believe
is harmonic minor scale runs. Oddly enough, the fade out
solo of this song is very blues influenced

|-------14-17----14-------|
|----15-------------15----|
|-16-------------------16-|
|-------------------------|
|-------------------------|
|-------------------------|

|--12----------|
|-----13-------|
|--------14----|
|--------------|
|--------------|
|--------------|

That shape down the neck a few times

Under the last blues fade out solo
|--------------------------------|
|--------------------------------|
|--------------------------------|
|-4-4444-7-7777------------------|
|-2-2222-5-5555---5-5555-2-2222--|
|-----------------3-3333-0-0000--|

  Visit MetalTabs.com for more metal tablature

bottom separator

Contact Us | Privacy Policy | Disclaimer | Legal Notice
Copyright © 2001-2014 MetalTabs.com. All Rights Reserved.