top separator

Home

Forum

What's New

Submit a Tab

FAQ

Links

Contact Us

Link to Us

MuSpy.com

MetalTabs.com logo

Bands

0-9

A

B

C

D

E

F

G

H

I

J

K

L

M

N

O

P

Q

R

S

T

U

V

W

X

Y

Z

Search

What

Where
 

Suidakra - "Dinas Emrys" Guitar Tab

Plain Text Version
More Suidakra Tabs

Hits: 5100
Rated: 5.00 out of 5 (2 votes)
Updated: 2005-10-12 06:38:37

 

By:

Kalmahswamp

sendpm.gif

email.gif

Important note
This tab is available online because we obtained explicit permission from Suidakra or their label.


#----------------------------------PLEASE NOTE---------------------------------#
#This file is the author's own work and represents their interpretation of the #
#song. You may only use this file for private study, scholarship, or research. #
#Unless specified otherwise, this is NOT an official tab from the band members.#
#------------------------------------------------------------------------------#

  Visit MetalTabs.com for more metal tablature
  
Band:  Suidakra
Album: Emprise to Avalon
Song:  Dinas Emrys

Copyright (c)  Scarecrow 2002

Transcribed By: Paul Sullivan
Email:          kalmahswamp@yahoo.com


Tuning E A D G B E

Part 1
E-3-1h3p1---1-3--------------------------------------------------|
B---------4---------3-1h3p1---1-3--3-1-3-4-1---------------------|
G-0-------------------------3----------------3-2-----------------|
D-------------------0--------------0-----------------------------|
A----------------------------------------------------------------|
E----------------------------------------------------------------|

Part 2*You can figure out strumming patter, I've provided chords*
Also: Pluck strings accordingly in chords while strumming to create 3rd guitar
effect
E--------------------3--3----------------------------------|
B--------------------3--3----------------------------------|
G-3-2h3p2---5---2-3--3--3--3--1--3-2h3p2---5---2-3---------|
D---------3---3------5--5--5--3----------3---3-----------|
A--------------------------5--3----------------------------|
E--------------------------3--1----------------------------|

Part 3 (on top of part 2 chords)
E----------------------------------------------------------------
B-3-3-4-3------------1-3-1------3-3-4-3------------1-3-10-11-10--
G---------3-0-2-3--3-------3-2----------3-0-2-3--3---------------
D----------------------------------------------------------------
A----------------------------------------------------------------
E----------------------------------------------------------------

E---------8-10---------11-10-8----8----------8-10----------------------
B-8-10-11------11-10-8---------11----8-10-11------11-13-11----10-------
G----------------------------------------------------------12----11-12-
D----------------------------------------------------------------------
A----------------------------------------------------------------------
E----------------------------------------------------------------------

E---------------------------|
B-4-3h4p3---3-4-------------|
G---------5-----2-3---------|
D---------------------------|
A---------------------------|
E---------------------------|

Part 2

  Visit MetalTabs.com for more metal tablature

bottom separator

Contact Us | Privacy Policy | Disclaimer | Legal Notice
Copyright © 2001-2014 MetalTabs.com. All Rights Reserved.