top separator

Home

Forum

What's New

Submit a Tab

FAQ

Links

Contact Us

Link to Us

MuSpy.com

MetalTabs.com logo

Bands

0-9

A

B

C

D

E

F

G

H

I

J

K

L

M

N

O

P

Q

R

S

T

U

V

W

X

Y

Z

Search

What

Where
 

Moonsorrow - "Köyliönjärven Jäällä (Pakanavedet II)" Guitar Tab

Plain Text Version
More Moonsorrow Tabs

Hits: 3355
Rated: 5.00 out of 5 (1 vote)
Updated: 2005-10-12 06:34:53

 

By:

Theoldman

sendpm.gif

email.gif

Important note
This tab is available online because we obtained explicit permission from Moonsorrow or their label.


#----------------------------------PLEASE NOTE---------------------------------#
#This file is the author's own work and represents their interpretation of the #
#song. You may only use this file for private study, scholarship, or research. #
#Unless specified otherwise, this is NOT an official tab from the band members.#
#------------------------------------------------------------------------------#

  Visit MetalTabs.com for more metal tablature
  
Band:  Moonsorrow
Album: Suden Uni
Song:  Köyliönjärven Jäällä (Pakanavedet II)

Copyright (c)  Plasmatica Records 2001
Version 1.0 - 7.10.2005

Transcribed By: Theoldman
Email:          swordbearing@hotmail.com
________________________________________

.  - palm mute           /  - slide up to
\  - slide down to       ~  - vibrato
h  - hammer on           b  - Bend
p  - pull off            Suffixes for bend
t  - tap                 f  - full bend    h - half bend
ph - pinched harmonic    q  - quarter bend t - tap bend
*  - see comment         ^  - Hold bend    r release bend
x  - Stuccatto           ~  - vibrato bend
,  - slight palm mute    () - ghost note, sustained note
"  - tremolo note        <> - Trill

Tuning E A D G B E

Riff 1 (0:01-0:30)
|------------------------------------------------|
|------------------------------------------------|
|----------------------------7-6-7---------------|
|----9-8-9-------4-3-4-------5-4-5-------9-8-9---|
|----7-6-7-------2-1-2-------------------7-6-7---|
|0-0---------0-0---------0-0---------0-0---------|
 . .         . .         . .         . .
|------------------------------------------------|
|------------------------------------------------|
|----------------------------7-6-7---------------|
|----9-8-9-------4-3-4-------5-4-5-------8---7---|
|----7-6-7-------2-1-2-------------------6---5---|
|0-0---------0-0---------0-0---------0-0---------|
 . .         . .         . .         . .


Riff 2 (0:31-0:40)
|-----------------------------|
|-----------------------------|
|-----------------------------|
|2------------------------3---|
|2------------------------3---|
|0------------------------1---|



Riff 3 (0:41-1:00)
|-------------------------|
|-------------------------|
|-------------------------|
|-------------------------|
|---2-2---2-2---2-2---2-2-|
|---0-0---0-0---0-0---0-0-|
    . .   . .   . .   . .


Riff 4 (acoustic) (1:01-1:20)
|--7-7---7---7-7-8-7-5---7------|--7-7---7---7-7-3---3-3-3-2-2---|
|5------------------------------|5-------------------------------|
|-------------------------------|--------------------------------|
|-------------------------------|--------------------------------|
|-------------------------------|--------------------------------|
|-------------------------------|--------------------------------|



Riff 5 (1:21-1:40)
|----------------------------|-----------------------------|
|----------------------------|-----------------------------|
|----------------------------|-----------------------------|
|2------------5-4-2---4------|2----------------------------|
|2------------3-2-0---2------|2------------5---------4-----|
|0---------------------------|0------------3---3-3-3-2-2---|



Riff 3 (1:41-1:59)

Riff 5 (2:00-2:18)

Riff 3 (2:19-2:38)

Riff 2 (2:39-2:57)

Riff 4 (under Riff 2) (2:39-2:57)



Riff 6 (2:58-3:10)
|-------------------------------------------|
|-------------------------------------------|
|-------------------------------------------|
|7---7-------------------2------------------|
|5---5---5-5-4---4-------2------------------|
|------------2---2---2-2-0------------------|
         . .         . .


Riff 7 (3:11-3:39)
|---------------------|----------------------|
|---------------------|----------------------|
|---------------------|----------------------|
|-------4-------------|-------4--------------|
|2------2---7---------|2------2---7----------|
|0----------5---------|0----------5----------|

|---------------------|------------------------|
|---------------------|------------------------|
|---------------------|------------------------|
|-------4-------------|------------7---7-------|
|2------2---7---------|5---5-------5---5---5-5-|
|0----------5---------|3---3---3-3-------------|
                               . .         . .


Riff 8 (3:40-4:08)
|-------------------------------|----------------------------|
|-------------------------------|----------------------------|
|-------------------------------|----------------------------|
|2------------------7-----------|2-------------------7-------|
|2------------------5---5-5-4---|2------------5------5-------|
|0--------------------------2---|0------------3--------------|
                        . .


Riff 9 (4:09-4:33)
|---------------------|----------------------|
|---------------------|----------------------|
|---------------------|----------------------|
|-------4-------------|-------4--------------|
|2------2---7---------|2------2---7----------|
|0----------5---------|0----------5----------|

|---------------------|------------|
|---------------------|------------|
|---------------------|------------|
|-------4-------------|------------|
|2------2---7---------|2---5---4---|
|0----------5---------|0---3---2---|



Riff 10 (4:34)
|----------------|
|----------------|
|----------------|
|2---------------|
|2---------------|
|0---------------|



Riff 6 (4:35-4:47)

Riff 2 (4:48-5:26)

Riff 4 (under Riff 2) (4:48-5:26)

Riff 3 (5:27-5:45)

Riff 5 (5:46-6:04)

Riff 3 (6:05-6:25)



END

  Visit MetalTabs.com for more metal tablature

bottom separator

Contact Us | Privacy Policy | Disclaimer | Legal Notice
Copyright © 2001-2014 MetalTabs.com. All Rights Reserved.