top separator

Home

Forum

FAQ

Contact Us

Link to Us

MetalTabs.com logo

Bands

0-9

A

B

C

D

E

F

G

H

I

J

K

L

M

N

O

P

Q

R

S

T

U

V

W

X

Y

Z

Dying Fetus - "Onslaught Of Malice" Guitar Tab

Plain Text Version
More Dying Fetus Tabs

Hits: 3631
Rated: 4.00 out of 5 (1 vote)
Updated: 2005-10-12 06:34:45

By:

Yura


#----------------------------------PLEASE NOTE---------------------------------#
#This file is the author's own work and represents their interpretation of the #
#song. You may only use this file for private study, scholarship, or research. #
#Unless specified otherwise, this is NOT an official tab from the band members.#
#------------------------------------------------------------------------------#

  Visit MetalTabs.com for more metal tablature
  
--- D Y I N G   F E T U S ---
                            "Onslaught Of Malice"
                     From album: "Stop At Nothing"
                     Copyright RELAPSE Records 2003 
                     Transcribed by: Yura Kowalchuk
                     Version: 1.0 (September'05)
                     Contact:[yura_kowalchuk@mail.ru]
                             [yura@grindcore.net]
                    http://www.blood-scrapes.nm.ru
                    http://brutaltabs.musica.mustdie.ru

                            TABULATURE LEGEND:
                   " - tremolo             h - hammer on
                   ~ - vibrato             \ - slide down
                   p - pull off            / - slide down
                  tr - trill               ^ - pinch harmonics
                   = - sustained note      b - bend string
                p.m. - palm muting         t - tapping
                           <> - natural harmonic

TUNING: C# [C#,F#,B,e,g#,c#]

[Riff 1 (x8)]
||----------------------------------------------------------------||
||o--------------------------------------------------------------o||
||----------------------------------------------------------------||
||-------2-3-4-3-2------2-3-4-3-2------2-3-4-3-2------------------||
||o-5-4--0-1-2-1-0-5-4--0-1-2-1-0-5-4--0-1-2-1-0-4-5-4-2-5-6-5-2-o||
||--3-2------------3-2------------3-2------------2-3-2-0-3-4-3-0--||

[Riff 2 (x2)]
||--------------------------|--------------------------||
||o-------------------------|-------------------------o||
||--4"----2"----4"----5"----|-4"----2"----4"-----------||
||--------------------------|-------------------5"-----||
||o----2"----2"----2"----2"-|----2"----2"----2"----2"-o||
||--------------------------|--------------------------||

[RIFF 1 (x2)] [RIFF 1 (x2) /pam muting/]

[Outro 1]
|---------------------------------------------|
|---------------------------------------------|
|---------------------------------------------|
|-5"-----5"-----6"-----5"-----2-5-2-------2-5-|
|-----------------------------------4---------|
|----2-2----2-3----2-2----2-2---------5-4-----|
|                             . . . . . . . . |
|---------------------------------------------|
|---------------------------------------------|
|---------------------------------------------|
|-----------------------------2-5-2-------2-5-|
|-----------------------------------4---------|
|-------------------------------------5-4-----|
                              . . . . . . . .

[Riff 3 (x2)]
||--|----------------------------------------[x4]-|-----------------
||o-|---------------------------------------------|-----------------
||--|---------------------------------------------|-----------------
||--|-5"-----5"-----6"-----5"-----2-5-2-------2-5-|-4-7-4-------4-7-
||o-|-----------------------------------4---------|-------6---------
||--|----2-2----2-3----2-2----2-2---------5-4-----|---------7-6-----
                                  . . . . . . . .   . . . . . . . .

------------------||
-----------------o||
------------------||
-3-6-3-------3-6--||
-------5----------||
---------6-5-----o||
 . . . . . . . .

[Riff 4]
|--|----------------------------------------[x4]-|-----------------
|--|---------------------------------------------|-----------------
|--|---------------------------------------------|-----------------
|--|-----------------------------2-5-2-------2-5-|-4-7-4-------4-7-
|--|-4------4------5------4------------4---------|-------6---------
|--|-2--0-0-2--0-0-3--0-0-2--0-0---------5-4-----|---------7-6-----
        . .    . .    . .    . . . . . . . . . .   . . . . . . . .

-----------------|
-----------------|
-----------------|
-3-6-3-------3-6-|
-------5---------|
---------6-5-----|
 . . . . . . . .

[Riff 5 /medium tempo/ (x2)]
||----------------------------------|------------------------------
||o---------------------------------|------------------------------
||----------------------------------|-------------5--------4/5-5-5-
||----------------------------------|-------------3--------2/3-3-3-
||o-2-2-2-2-5-3-2-2-2-5-2-2-5/6-2-2-|-2-2-2-2-5-2-3--2-5-2-2/3-3-3-
||--0-0-0-0-3-1-0-0-0-3-1-0-3/4-0-0-|-0-0-0-0-3-0----0-3-0---------
    . . . . . . . . . . . .     . .   . . . . . .    . . .

---------------------------------|--------------[x2]-|--||
---------------------------------|-------------------|-o||
---------------------------------|-------------------|--||
---------------------------------|----------0--3--2--|--||
-2-2-2-2-5-3-2-2-2-5-2-2-5/6-2-2-|-2--2--1--2--5--4--|-o||
-0-0-0-0-3-1-0-0-0-3-1-0-3/4-0-0-|-0--4--3-----------|--||
 . . . . . . . . . . . .     . .   .  .  .  .  .  .

[Riff 6 (x6)]
||----------------------------------|----------------------------------||
||o---------------------------------|---------------------------------o||
||--4-------------------------------|-4--------------------------------||
||--2-4-5-2-4-----------------------|-2-4-5-2-4------------------------||
||o---2-3-0-2-5-7-4-5-4-7-4-5-4-5-4-|---2-3-0-2-5-7-5-4-4-4-7-3-3-3-3-o||
||------------3-5-2-3-2-5-2-3-2-3-2-|-----------3-5-3-2-2-2-5-1-1-1-1--||
    . . . . . . . . . . . . . . . .   . . . . . . . . . . . . . . . .

[Riff 7 (x4)]
||----------------------------------------------------------------|-
||o---------------------------------------------------------------|-
||----------------------------------------------------------------|-
||----------------------------------------------------------------|-
||o-t11p7p4p0h4h7-t11p7p4p0h4h7-t11p7p4p0h4h7-t11p7p4p0-t12p8p5p0-|-
||----------------------------------------------------------------|-
    \___________/ \___________/ \___________/ \_______/ \_______/

-|----------------------------------------------------------||
-|---------------------------------------------------------o||
-|----------------------------------------------------------||
-|----------------------------------------------------------||
-|-t14p5p2p0h2h5-t14p5p2p0h2h5-t13p4p1p0h1h4-t13p4p1p0h1h4-o||
-|----------------------------------------------------------||
   \___________/ \___________/ \___________/ \___________/

[Outro 2]
|---------------------------------------------------------|
|---------------------------------------------------------|
|---------------------------------------------------------|
|---------------------------------------------------------|
|-t14p5p2p0h2h5-t14p5p2p0h2h5-t13p4p1p0h1h4-t13p4p1p0h1h4-|
|---------------------------------------------------------|
  \___________/ \___________/ \___________/ \___________/

[Outro 3]
|---------------------------------|---------------------------------|
|---------------------------------|---------------------------------|
|---------------------------------|---------------------------------|
|---------------6---------------7-|---------------6-----------------|
|-2-3-4-3-4-3-2-4-2-3-4-3-4-3-2-5-|-2-3-4-3-4-3-2-4-2-3-4-3-4-5-6-5-|
|-0-1-2-1-2-1-0---0-1-2-1-2-1-0---|-0-1-2-1-2-1-0---0-1-2-1-2-3-4-3-|
| . . . . . . .   . . . . . . .   | . . . . . . .   . . . . . . . . |
|---------------------------------|---------------------------------|
|---------------------------------|---------------------------------|
|---------------------------------|---------------------------------|
|---------------6---------------7-|---------------6-----------------|
|---------------4---------------5-|---------------4-2-3-4-3-4-5-6-5-|
|---------------------------------|-----------------0-1-2-1-2-3-4-3-|
                .               .                 . . . . . . . . .

[Riff 8 (x4)]
||----------------------------------|----------------------------------||
||o---------------------------------|---------------------------------o||
||----------------------------------|----------------------------------||
||----------------6---------------7-|---------------6------------------||
||o-2-3-4-3-4-3-2-4-2-3-4-3-4-3-2-5-|-2-3-4-3-4-3-2-4-2-3-4-3-4-5-6-5-o||
||--0-1-2-1-2-1-0---0-1-2-1-2-1-0---|-0-1-2-1-2-1-0---0-1-2-1-2-3-4-3--||
    . . . . . . .   . . . . . . .     . . . . . . .   . . . . . . . .

[Riff 9 (x4)]
||----------------------------------|----------------------------------||
||o---------------------------------|---------------------------------o||
||----------------------------------|----------------------------------||
||--4---3---------4-----------------|----------------------------------||
||o-2---1-----6---2-------3-4-3-4-4-|-7---6-----3---7---3---4-4-3-4-3-o||
||----0---0-0-4-0---0-0-0-1-2-1-2-2-|-5-0-4-0-0-1-0-5-0-1-0-2-2-1-2-1--||
      .   . .   .   . . . . . . . .     .   . .   .   .   . . . . . .

[Riff 10 (x4)]
||--------------------------------------||
||o------------------------------------o||
||--------------------------------------||
||--------------------------------------||
||o--------4h5p4p0-3----4----3--3/7-6--o||
||--4h5h7p4--------1--0-2--0-1--1/5-4---||
                      .    .

[RIFF 10 (x4)] /palm muting/]

[Riff 11 /slowly/ (x2)]
||-----------------------------------|-------------------------------------||
||o----------------------------------|------------------------------------o||
||-----------------------------------|---------------------------------^---||
||------0h4h8p4--0h3h7p3-------------|-----0h4h8p4--0h3h7p3------------4~--||
||o-2-3--------5--------4----3--3-2--|-2-3--------5--------4----3--3/4----o||
||--0-1-------------------0--1--1-0--|-0-1-------------------0--1--1/2-----||
    . .                   .     .      . .                   .

[Riff 12 (x2)]
||--------------------------------------------|-----------------------
||o-------------------------------------------|-----------------------
||--------------------------------------------|-----------------------
||------0h4h8p4--0h3h7p3----------------------|-----0h4h8p4--0h3h7p3--
||o-2-3--------5--------4-----3-3-3-3-3-2-2-2-|-2-3--------5--------4-
||--0-1-------------------0-0-1-1-1-1-1-0-0-0-|-0-1-------------------
    . .                   . . . . . . . . . .   . .

----------------------||
---------------------o||
----------------------||
----------------------||
-----3-3-3-3-3-4-4-4-o||
-0-0-1-1-1-1-1-2-2-2--||
 . . . . . . . . . .

[Outro 4 /fast!!!/]
|--------------------------------------------------------------|
|--------------------------------------------------------------|
|--------------------------------------------------------------|
|------5-5-3-2--------6-6-4-3----------------------------------|
|-3-3----------3-3-3----------33-3-3--2-2-----3-------4-4-4----|
|-1-1----------1-1-1----------11-1-1------1-1---4-3-4-----2----|
| . .  . . . . . . .  . . . . .. . .  . . . . . . . . . . .    |
|--------------------------------------------------------------|
|--------------------------------------------------------------|
|--------------------------------------------------------------|
|--------------------------------------------------------------|
|-3-3----------3-3-3----------33-3-3---------------------------|
|-1-1----------1-1-1----------11-1-1---------------------------|
  . .          . . .          .. . .

[Riff 13]
|--|---------------------------------------------------------[x3]-|-
|--|--------------------------------------------------------------|-
|--|--------------------------------------------------------------|-
|--|------5-5-3-2--------6-6-4-3----------------------------------|-
|--|-3-3----------3-3-3----------33-3-3--2-2-----3-------4-4-4----|-
|--|-1-1----------1-1-1----------11-1-1------1-1---4-3-4-----2----|-
     . .  . . . . . . .  . . . . .. . .  . . . . . . . . . . .

---------------------------------------------------------|
---------------------------------------------------------|
---------------------------------------------------------|
------5-5-3-2--------6-6-4-3-------------------------^---|
-3-3----------3-3-3----------33-3-3--2-2-----3-------4~~-|
-1-1----------1-1-1----------11-1-1------1-1---4-3-4-----|
 . .  . . . . . . .  . . . . .. . .  . . . . . . . .

[Riff 14 (x4)]
||----------------------------------|----------------------------------||
||o---------------------------------|---------------------------------o||
||----------------------------------|-----------------------------4-7--||
||----------------------------------|---------------------3---3-6------||
||o-3-3-3-3---------3-3-3-3---------|-3-3-3-3-----2---2-5---5---------o||
||--1-1-1-1-4-2-5-2-1-1-1-1-2-1-0-0-|-1-1-1-1-1-4---4------------------||
    . . . . . . . . . . . . . . . .   . . . . . . . . . . . . . . . .

[Ending]
|-------------------------|
|-------------------------|
|-------------------------|
|-------------------------|
|-------------------------|
|-1111--1111--1111--------|
  ....  ....  ....

END OF SONG

  Visit MetalTabs.com for more metal tablature

bottom separator

Contact Us | Privacy Policy | Disclaimer
Copyright © 2001-2014 MetalTabs.com. All Rights Reserved.