top separator

Home

Forum

What's New

Submit a Tab

FAQ

Links

Contact Us

Link to Us

MetalTabs.com logo

Bands

0-9

A

B

C

D

E

F

G

H

I

J

K

L

M

N

O

P

Q

R

S

T

U

V

W

X

Y

Z

Search

What

Where
 

Malevolent Creation - "Envenomed" Guitar Tab

Plain Text Version
More Malevolent Creation Tabs

Hits: 3013
Rated: 3.67 out of 5 (3 votes)
Updated: 2005-10-12 06:33:18

 

By:

l0rdpj

sendpm.gif

email.gif

Important note
This tab is available online because we obtained explicit permission from Malevolent Creation or their label.


#----------------------------------PLEASE NOTE---------------------------------#
#This file is the author's own work and represents their interpretation of the #
#song. You may only use this file for private study, scholarship, or research. #
#Unless specified otherwise, this is NOT an official tab from the band members.#
#------------------------------------------------------------------------------#

  Visit MetalTabs.com for more metal tablature
  
Band:  Malevolent Creation
Album: Envenomed
Song:  Envenomed
Label: Pavement Music

tabber Email: l0rdpj@yahoo.com


.  - palm mute           /  - slide up to
\  - slide down to       ~  - vibrato
h  - hammer on           b  - Bend
p  - pull off            Suffixes for bend
t  - tap                 f  - full bend    h - half bend
ph - pinched harmonic    q  - quarter bend t - tap bend
*  - see comment         ^  - Hold bend    r release bend
x  - Stuccatto           ~  - vibrato bend
,  - slight palm mute    () - ghost note, sustained note
"  - tremolo note        <> - Trill

OK, here is the finished version of Malevolent Creation’s Envenomed.
This one should be fairly accurate. Any questions or comments please
E-mail them to me, lemme know what ya think!


Tuning 1.5 steps down from standard C# F# B E G# C#



Both Guitars 2x

D----9/10--9/10-----9/10--7/9-----9/10--9/7-------------------------
A-2--7/8---7/8---2--7/8---5/7--2--7/8---7/5--77775555---------------
E-0--------------0-------------0---------------------111111111------


D----9/10-9/10------9/10-11/12----9/10--9/7-------------------------
A-2--7/8--7/8----2--7/9--9/10--2--7/8---7/5--7777778877555555-------
E-0--------------0-------------0-----------------------------111111-



Both Guitars 2x
A-777777777777777755557777888888887788775555555522222222---
E----------------------------------------------------------


A-77777777777777775555777788888888101010101010101088888888-
E----------------------------------------------------------


Repeat above 1x, and then to below


Play 1x

   D----9/10--9/10-----9/10--7/9-----9/10--9/7-------------------
1: A-2--7/8---7/8---2--7/8---5/7--2--7/8---7/5--77775555---------
   E-0--------------0-------------0---------------------11111111-

   D-------------------------------------------------------------
2: A-2--------------2-------------2-------------77775555---------
   E-0--------------0-------------0---------------------11111111-


   D----9/10-710-----9/11-11/12----9-10--9-7---------------------
1: A-2--7/8--7/8--2--7/9--9/10--2--7/8---7/5--777788775555-------
   E-0------------0-------------0-------------------------111111-

   D-------------------------------------------------------------
2: A-2------------2-------------2-------------777788775555-------
   E-0------------0-------------0-------------------------111111-



Both Guitars 2x

D----9/10--9/10-----9/10--7/9-----9/10--9/7---------------------------
A-2--7/8---7/8---2--7/8---5/7--2--7/8---7/5--77775555-----------------
E-0--------------0-------------0---------------------11111111---------


D----9/10--9/10-----9/10-11/12----9/10--9/7---------------------------
A-2--7/8---7/8---2--7/9--9/10--2--7/8---7/5--7777778877555555---------
E-0--------------0-------------0-----------------------------11111111-



Repeat 1x

   D-9-9-------------11-11------12-12--------
1: A-7-7-------------9--9-------10-10--------
   E-0-0-0-0-0-0-0-0-------0-0--------0-0----

   D-5-5-------------7--7--------9--9---------
2: A-7-7-------------9--9-------10-10---------
   E-0-0-0-0-0-0-0-0-------0-0--------0-0----


   D-9-9--------------11-11------12-12---10-10-
1: A-7-7--------------9--9-------10-10---8--8--
   E-0-0-0-0-0-0-0-0--------0-0----------8--8--

   D-5-5--------------7--7--------9--9---7--7--
2: A-7-7--------------9--9-------10-10---8--8--
   E-0-0-0-0-0-0-0-0--------0-0---------------



Repeat 2x

   D-----------------------------------------------
1: A-7-----7--------1-----6-----6-----6-----6------
   E---0-0---0-0-321-3210---0-0---0-0---0-0----0-0-

   D-5-----5--------------7-----7-----7-----7------
2: A-7-----7--------1-----6-----6-----6-----6------
   E---0-0---0-0 321-3210---0-0---0-0---0-0----0-0-


   D-----------------------------------------------
1: A-7-----7--------1-----8-----8-----8-----8------
   E---0-0---0-0-321-3210---0-0---0-0---0-0----0-0-

   D-5-----5--------------7-----7-----7-----7------
2: A-7-----7--------1-----8-----8-----8-----8------
   E---0-0---0-0-321-3210---0-0---0-0---0-0----0-0-



Both Guitars Play 16X

A----1-----
E-321-3210-



Both Guitars Repeat 1x

A-------------------------44445555----------------55555566666-
E-444444444444444455555555--------1111111111111111------------


Repeat above 2 sections 1x, then to below



Both Guitars 2x

D----9/10--9/10----9/10--7/9-----9/10--9/7-------------------------
A-2--7/8---7/8--2--7/8---5/7--2--7/8---7/5--77775555---------------
E-0-------------0-------------0---------------------11111111-------


D----9/10--9/10----9/10-11/12----9/10--9/7---------------------------
A-2--7/8---7/8--2--7/9--9/10--2--7/8---7/5--777777888877555555-------
E-0-------------0-------------0-------------------------------111111-



Both Guitars 2x

A-77777777777777777777555577778888887788775555555522222222---
E------------------------------------------------------------


A-7777777777777777777755557777888888881010101010101088888888-
E------------------------------------------------------------


Repeat above 2 sections 1x, then to below



   D----9/10--9/10-----9/10--7/9-----9/10--9/7-----------------
1: A-2--7/8---7/8---2--7/8---5/7--2--7/8---7/5--777777555555-3-
   E-0--------------0-------------0--------------------------1-

   D-----------------------------------------------------------
2: A-2--------------2-------------2-------------777777555555-3-
   E-0--------------0-------------0--------------------------1-

  Visit MetalTabs.com for more metal tablature

bottom separator

Contact Us | Privacy Policy | Disclaimer | Legal Notice
Copyright © 2001-2014 MetalTabs.com. All Rights Reserved.