top separator

Home

Forum

What's New

Submit a Tab

FAQ

Links

Contact Us

Link to Us

MuSpy.com

MetalTabs.com logo

Bands

0-9

A

B

C

D

E

F

G

H

I

J

K

L

M

N

O

P

Q

R

S

T

U

V

W

X

Y

Z

Search

What

Where
 

Agnus Dei (MX) - "King By Blood Right" Guitar Tab

Plain Text Version
More Agnus Dei (MX) Tabs

Hits: 1886
Rated: 4.00 out of 5 (1 vote)
Updated: 2005-10-12 06:30:10

 

By:

sendpm.gif

email.gif

Important note
We did our best to reach Agnus Dei (MX) and ask for their permission to publish this tab. Unfortunately they did not respond to our requests or we could not find a way to contact them. This tab is available online until Agnus Dei (MX) tells us to take it down.


#----------------------------------PLEASE NOTE---------------------------------#
#This file is the author's own work and represents their interpretation of the #
#song. You may only use this file for private study, scholarship, or research. #
#Unless specified otherwise, this is NOT an official tab from the band members.#
#------------------------------------------------------------------------------#

  Visit MetalTabs.com for more metal tablature
  
Band:  Agnus Dei
Album: A.D. 666
Song:  (King By Blood Right

Copyright (c) Metropolis-Records
Version 1.0 - 2003

Transcribed By: Aislinn
Email:          aislinn@agnusdei-hb.com


.  - palm mute           /  - slide up to
\  - slide down to       ~  - vibrato
h  - hammer on           b  - Bend
p  - pull off            Suffixes for bend
t  - tap                 f  - full bend    h - half bend
ph - pinched harmonic    q  - quarter bend t - tap bend
*  - see comment         ^  - Hold bend    r release bend
x  - Stuccatto           ~  - vibrato bend
,  - slight palm mute    () - ghost note, sustained note
"  - tremolo note        <> - Trill

Tuning E A D G B E

Intro
|----------------------------------------------------|
|----------------------------------------------------|
|----------------------------------------------------|
|-6----6----6--6----6----6--2----2----2--2----2----2-|
|-4----4----4--4----4----4--0----0----0--0----0----0-|
|--0000-0000-00-0000-0000----0000-0000-00-0000-0000--|

|----------------------------------------------------|
|----------------------------------------------------|
|----------------------------------------------------|
|-8----8----8--8----8----8--4----4----4--------------|
|-6----6----6--6----6----6--2----2----2--6----4------|
|--0000-0000-00-0000-0000----0000-0000---4----2------| X2


Verse 1
|----------------------------------------------------|
|----------------------------------------------------|
|----------------------------------------------------|
|-6-------6-------6------6--2--------2-------2-----2-|
|-4-------4-------4------4--0--------0-------0-----0-|
|------0-0-----0-0-----0----------0-0-----0-0----0---|

|--------------------------|
|--------------------------|
|--------------------------|
|-4---------------4------5-|
|-2---------------2------3-|
|--------------0-0---------| X2

|----------------------------------------------------|
|----------------------------------------------------|
|----------------------------------------------------|
|-6----6----6--6----6----6--2----2----2--2----2----2-|
|-4----4----4--4----4----4--0----0----0--0----0----0-|
|--0000-0000-00-0000-0000----0000-0000-00-0000-0000--|

|----------------------------------------------------|
|----------------------------------------------------|
|----------------------------------------------------|
|-4----4----4--4----4----4--4------------5-----------|
|-2----2----2--2----2----2--2------------3-----------|
|--0000-0000-00-0000-0000----------------------------| x2


Solo
Guitar 1

Part 1
|-15-15-12-12-15-15-12-12-15-15-12-12-15-15-12-12----|
|----------------------------------------------------|
|----------------------------------------------------|
|----------------------------------------------------|
|----------------------------------------------------|
|----------------------------------------------------| X2

|----------------------------------------------------|
|-15-15-12-12-15-15-12-12-15-15-12-12-15-15-12-12----|
|----------------------------------------------------|
|----------------------------------------------------|
|----------------------------------------------------|
|----------------------------------------------------| X2

Part 2
|----------------------------------------------------|
|----------------------------------------------------|
|-/14~------------------12-12h11~--12-11~------------|
|----------------------------------------------------|
|----------------------------------------------------|
|----------------------------------------------------| X2

Part 3
|----------------------------------------------------|
|--------------------------15-14---12-12~------------|
|-/9~-------------------12---------------------------|
|----------------------------------------------------|
|----------------------------------------------------|
|----------------------------------------------------| X2


Guitar 2
|----------------------------------------------------|
|----------------------------------------------------|
|----------------------------------------------------|
|-9-----9-----9-----9--9-----------------------------|
|-7-----7-----7-----7--7------9-----9-----9-----9--9-|
|-----------------------------7-----7-----7-----7--7-| x8


Bridge 1
|----------------------------------------------------|
|----------------------------------------------------|
|----------------------------------------------------|
|-6----6----6--6----6----6--2----2----2--2----2----2-|
|-4----4----4--4----4----4--0----0----0--0----0----0-|
|--0000-0000-00-0000-0000----0000-0000-00-0000-0000--|

|----------------------------------------------------|
|----------------------------------------------------|
|----------------------------------------------------|
|-8----8----8--8----8----8--4----4----4--------------|
|-6----6----6--6----6----6--2----2----2--6----4------|
|--0000-0000-00-0000-0000----0000-0000---4----2------| X2


Verse 2
|----------------------------------------------------|
|----------------------------------------------------|
|----------------------------------------------------|
|-6-------6-------6------6--2--------2-------2-----2-|
|-4-------4-------4------4--0--------0-------0-----0-|
|------0-0-----0-0-----0----------0-0-----0-0----0---|

|--------------------------|
|--------------------------|
|--------------------------|
|-4---------------4------5-|
|-2---------------2------3-|
|--------------0-0---------| X2

|----------------------------------------------------|
|----------------------------------------------------|
|----------------------------------------------------|
|-6----6----6--6----6----6--2----2----2--2----2----2-|
|-4----4----4--4----4----4--0----0----0--0----0----0-|
|--0000-0000-00-0000-0000----0000-0000-00-0000-0000--|

|----------------------------------------------------|
|----------------------------------------------------|
|----------------------------------------------------|
|-4----4----4--4----4----4--4------------5-----------|
|-2----2----2--2----2----2--2------------3-----------|
|--0000-0000-00-0000-0000----------------------------| x2


Bridge 2
Part 1
|----------------------------------------------------|
|----------------------------------------------------|
|----------------------------------------------------|
|----------------------------------------------------|
|-----------------------------------2~--1---2~-------|
|-\-0-0-0-2-1-0-0-0-2-1-0-0-0-2-1---------------2~---| X4

Part 2
|----------------------------------------------------|
|----------------------------------------------------|
|----------------------------------------------------|
|----------------------------------------------------|
|--------------------------------------2~--1--2~-----|
|-0--0--2-1-0--0--0--2-1-0--0--0--2-1-------------2~-| x4


Chorus
|----------------------------------------------------|
|----------------------------------------------------|
|----------------------------------------------------|
|----------------------------------------------------|
|--------------------------------------2~--1--2~-----|
|-0--0--2-1----0--0--2-1----0--0--2-1-------------2~-| x4


Outro
|----------------------------------------------------|
|----------------------------------------------------|
|----------------------------------------------------|
|-6----6----6--6----6----6--2----2----2--2----2----2-|
|-4----4----4--4----4----4--0----0----0--0----0----0-|
|--0000-0000-00-0000-0000----0000-0000-00-0000-0000--|

|----------------------------------------------------|
|----------------------------------------------------|
|----------------------------------------------------|
|-8----8----8--8----8----8--4----4----4--------------|
|-6----6----6--6----6----6--2----2----2--6----4------|
|--0000-0000-00-0000-0000----0000-0000---4----2------| X1

|-------|
|-------|
|---6---|
|---6---|
|---4---|
|---4---|

END

  Visit MetalTabs.com for more metal tablature

bottom separator

Contact Us | Privacy Policy | Disclaimer | Legal Notice
Copyright © 2001-2014 MetalTabs.com. All Rights Reserved.