top separator

Home

Forum

What's New

Submit a Tab

FAQ

Links

Contact Us

Link to Us

MetalTabs.com logo

Bands

0-9

A

B

C

D

E

F

G

H

I

J

K

L

M

N

O

P

Q

R

S

T

U

V

W

X

Y

Z

Search

What

Where
 

Send More Paramedics - "SMP - Nothing Tastes Like This" Guitar Tab

Plain Text Version
More Send More Paramedics Tabs

Hits: 2158
Updated: 2005-10-12 06:28:21

 

By:

Dahmers Fridge

sendpm.gif

email.gif

Important note
This tab is available online because we obtained explicit permission from Send More Paramedics or their label.


#----------------------------------PLEASE NOTE---------------------------------#
#This file is the author's own work and represents their interpretation of the #
#song. You may only use this file for private study, scholarship, or research. #
#Unless specified otherwise, this is NOT an official tab from the band members.#
#------------------------------------------------------------------------------#

  Visit MetalTabs.com for more metal tablature
  
Band:  Send More Paramedics
Album: Tales Told By Dead Men
Song:  Nothing Tastes Like This

Copyright (c)  (In At The Deep End) (2005)
Version 1.0 - (04/10/05)

Transcribed By: Steve
Email:          stephen.elvidge1@ntlworld.com


.  - palm mute           /  - slide up to
\  - slide down to       ~  - vibrato
h  - hammer on           b  - Bend
p  - pull off            Suffixes for bend
t  - tap                 f  - full bend    h - half bend
ph - pinched harmonic    q  - quarter bend t - tap bend
*  - see comment         ^  - Hold bend    r release bend
x  - Stuccatto           ~  - vibrato bend
,  - slight palm mute    () - ghost note, sustained note
"  - tremolo note        <> - Trill

Tunning C# Ab Db Gb Bb Eb



 Intro

E-----------------------------------|
B-----------------------------------|
G-----------------------------------|
D-0--------(0)--------3-/6--2-/8-8--|
A-0--------(0)--------1-/4--0-/6-6--|
E-0--------(0)----------------------| Rpt 4 X

 Main Riff

  Guitar 1
  [---PM---]  [---PM---]  [---PM---] [---PM---]   PM
E[-------------------------------------------------------|
B[-------------------------------------------------------|
G[-------------------------------------------------------|
D[-----------6-----------------------------------8----11-|
A[-----------4-----------8-----------7-----------6----9--|
E[-0-000-000---0-000-000-8-0-000-000-7-0-000-000---00----|
 [Guitar 2
E[-------------------------------------------------------|
B[-------------------------------------------------------|
G[-------------------------------------------------------|
D[-----------------------------------------------8----11-|
A[-----------------------------------------------6----9--|
E[-------------------------------------------------------| Rpt

 Verse

 Both Guitars
  [---PM---]  [---PM---]  [---PM---] [---PM---]   PM
E-------------------------------------------------------|
B-------------------------------------------------------|
G-------------------------------------------------------|
D-----------6-----------------------------------8----11-|
A-----------4-----------8-----------7-----------6----9--|
E-0-000-000---0-000-000-8-0-000-000-7-0-000-000---00----| Rpt 2 X

 Chorus

      [-------let ring-------]                            PM
E-----0-----------0---5---0---------------------------------------------|
B-------6-------6---6---6---6-------------------------------------------|
G-2-------7-5-7------------------3---(3)----------------------3---(3)---|
D-0---------------------------5-\0---(0)----------------------0---(0)---|
A-0---------------------------3-\1---(1)---5-\3--3---(3)------1---(1)---|
E-0----------------------------------------5-\3-\2---(2)---00-----------| Rpt

 Rpt Verse Riff 4 X
 Rpt Chorus

 Guitar solo

  D                                      A#
                  h h      h h     h  h~~ ~~~~~ph~~~
E---------------------------------------------------|
B---------------------------------------------------|
G-------------------------------------10-------7----|
D-7-7-11br-br-------12-------12---------------------|
A-------------10-12----10-12----10-12-----7-\5------|
E---------------------------------------------------|

  A               F
    h   h       h                  h               ph~~
E--------------------------------------------------------|
B--------------------------------------------------------|
G-------2p0---0-2p0-5-7--5-----------5-------------------|
D-0-3p0-----3--------------8p7-5-7-8---8-7-8-7-5---------|
A------------------------------------------------7p5-----|
E--------------------------------------------------------|

  Guitar 1. Plays under tapping section
  D                    C     A#           C       E     F  A#
                                          [-----PM-----]ph ~~~~
E--------------------------------------------------------------|
B-------------------------------------------h------h-----------|
G-----------------------------------------5-7777-5-7777-5------|
D----------------------8--7------------------------------------|
A-10-\4-/5--(5)--7-/8--------8-----(8)---------------------6---|
E--------------------------------------------------------------|

  Guitar 2  Tapping section
   t     t     t    t    t    t    t    t    t    t    t    t    t    t
E-13p10-13p10-13p0-13p0-12p0-12p0-12p0-12p0-15p0-15p0-15p0-15p0-13p0-12p0-|
B-------------------------------------------------------------------------|
G-------------------------------------------------------------------------|
D-------------------------------------------------------------------------|
A-------------------------------------------------------------------------|
E-------------------------------------------------------------------------|
                                                               Rpt

E-20p18p17-------20p18----17-18p17--------17-18p17-------------------|
B----------20p18-------18----------18--18----------18-17-15-18p17p15-|
G--------------------------------------------------------------------|
D--------------------------------------------------------------------|
A--------------------------------------------------------------------|
E--------------------------------------------------------------------|
                      ~~~~~~~~~~~~
E----------------------------------------|
B-\13\11\10-13p11\10---------------------|
G--------------------12---------(12)-----|
D----------------------------------------|
A----------------------------------------|
E----------------------------------------|


E-4-------------(4)---------------------------------------------|
B-3-------------(3)--------------3-------------(3)--------------|
G-2-------------(2)--------------2-------------(2)--------------|
D-0-------------(0)--------------0-------------(0)--------------|
A-0-------------(0)--------------0-------------(0)--------------|
E-0-------------(0)--------------0-------------(0)--------------|



 [--PM--]       ph~~[------PM-----]
E----------------------------------|
B----------------------------------|
G----------------------------------|
D---------4-3----------------------|
A-0-0-0-0-----2-1----0-0-0-0-0-0-0-|
E-0-0-0-0------------0-0-0-0-0-0-0-|


  Guitar 1
  [--PM--]       ph~~[-PM-]            [PM]
E[------------------------------------------|
B[------------------------------------------|
G[------------------------------------------|
D[---------4-3--------------4---------------|
A[-0-0-0-0-----2-1----0-0-0---3-------3-----|
E[-0-0-0-0------------0-0-0-----4-3-2---2-1-|
 [Guitar 2                             [PM]
E[------------------------------------------|
B[------------------------------------------|
G[------------------------------------------|
D[--------------------------4---------------|
A[-0--------------------------3-------3-----|
E[-0----------------------------4-3-2---2-1-|

 Both Guitars

 [--PM--]       ph~~[-PM-]   [-PM-]
E---------------------------------------|
B---------------------------------------|
G---------------------------------------|
D---------4-3--------------6-------8\7--|
A-0-0-0-0-----2-1----0-0-0-4-0-0-0-6\5--|
E-0-0-0-0------------0-0-0---0-0-0------|

 [--PM--]       ph~~[-PM-]            [PM]
E------------------------------------------|
B------------------------------------------|
G------------------------------------------|
D---------4-3--------------4---------------|
A-0-0-0-0-----2-1----0-0-0---3-------3-2---|
E-0-0-0-0------------0-0-0-----4-3-2-----1-|

 [--PM--]       ph~~[-PM-]    PM
E-------------------------------------------|
B-------------------------------------------|
G-------------------------------------------|
D--------/5-4--------------6\5-------7/8\7--|
A-0-0-0-0-----3-2----0-0-0-4\3---4/5-5/6\5--|
E-0-0-0-0------------0-0-0-----0-4/5--------|

 [--PM--]       ph~~[-PM-]            [PM]
E------------------------------------------|
B------------------------------------------|
G------------------------------------------|
D---------4-3--------------4---------------|
A-0-0-0-0-----2-1----0-0-0---3-------3-2---|
E-0-0-0-0------------0-0-0-----4-3-2-----1-|

                             ~~~
E--------------------------------|
B--------------------------------|
G--------------------------------|
D--------------------------------|
A---8-7-0-11----8-7-0-11-11/13---|
E-0-8-7-0-11--0-8-7-0-11-11/13---| Rpt

  [--PM--]   [--PM--]   PM  ~~~
E-------------------------------|
B-------------------------------|
G-------------------------------|
D-------------------------------|
A---8-7-0-11----8-7-0-11-0/13---|
E-0-8-7-0-11--0-8-7-0-11-0/13---| Rpt 8 X to end



END

  Visit MetalTabs.com for more metal tablature

bottom separator

Contact Us | Privacy Policy | Disclaimer | Legal Notice
Copyright © 2001-2014 MetalTabs.com. All Rights Reserved.