top separator

Home

Forum

What's New

Submit a Tab

FAQ

Links

Contact Us

Link to Us

MetalTabs.com logo

Bands

0-9

A

B

C

D

E

F

G

H

I

J

K

L

M

N

O

P

Q

R

S

T

U

V

W

X

Y

Z

Search

What

Where
 

Cadaveria - "Prayer of Sorrow" Guitar Tab

Plain Text Version
More Cadaveria Tabs

Hits: 2197
Rated: 5.00 out of 5 (1 vote)
Updated: 2005-10-12 06:24:41

 

By:

Tjaial

sendpm.gif

email.gif

Important note
This tab is available online because we obtained explicit permission from Cadaveria or their label.


#----------------------------------PLEASE NOTE---------------------------------#
#This file is the author's own work and represents their interpretation of the #
#song. You may only use this file for private study, scholarship, or research. #
#Unless specified otherwise, this is NOT an official tab from the band members.#
#------------------------------------------------------------------------------#

  Visit MetalTabs.com for more metal tablature
  
Band:  Cadaveria
Album: Far Away From Conformity
Song:  Prayer of Sorrow
Version 1.0 - 05-10-05

Transcribed By: Tjaial
Email:          Tjaial@aol.com
Copyright (c)   Scarlet Records

.  - palm mute           /  - slide up to
\  - slide down to       ~  - vibrato
h  - hammer on           b  - Bend
p  - pull off            Suffixes for bend
t  - tap                 f  - full bend    h - half bend
ph - pinched harmonic    q  - quarter bend t - tap bend
*  - see comment         ^  - Hold bend    r release bend
x  - Stuccatto           ~  - vibrato bend
,  - slight palm mute    () - ghost note, sustained note
"  - tremolo note        <> - Trill

Tuning B E A D G B or use a 7 string

listen to the song for timing and order of riffs


intro   slide on the E string in intro aswell
|----------------------------------------|
|----------------------------------------|
|----------------------------------------|
|-2-2-----0-------2-2-----2--5/7\5-------|
|-0-0-2-2-2---2-2-0-0-2-2-0--3/5\3-------|
|-----0-0-----0-0-----0-0----------------|
      . .     . .     . .

Riff 1
|--------------------------------------------------------------|
|--------------------------------------------------------------|
|--------------------------------------------------------------|
|--------------------------------------------------------------|
|-0-3p0-0-5p0-0-6p0-0-7p0-10\----0-3p0-5p0-6\-------4-3-4------|
|---------------------------------------------------2-1-2------|

2nd time palm mute it
|--------------------------------------------------------------|
|--------------------------------------------------------------|
|--------------------------------------------------------------|
|--------------------------------------------------------------|
|-0-3p0-0-5p0-0-6p0-0-7p0-10\----0-3p0-5p0-6\-------4-3-4------|
|---------------------------------------------------2-1-2------|
  . . . . . . . . . . . . . .    . . . . . . .      . . .

Riff 2
|---------------------------|
|---------------------------|
|----/12~\----/14-12~\------|
|-2--/10~\-2--/12-10~\------|
|-0--------0----------------|
|---------------------------|

Riff 3
|----------------------------|
|----------------------------|
|----------------------------|
|-22222555554444433333-------|
|-00000333332222211111-------|
|----------------------------|
  ....................

Riff 4
|-------------------------------------------------------------------|
|-------------------------------------------------------------------|
|-------------------------------------------------------------------|
|-----------------------------------------------------------------2-|
|-0-3p0-0-5p0-0-6p0-0-7p0-0-7p6p0-7-10----0-3p0-5p0-6p0-7p0---------|
|-----------------------------------------------------------3p2-0---|

Riff 5
|-----------------------------------------------------|
|-----------------------------------------------------|
|---------------5-2---------------5-------------------|
|---------------3-0---------------3-------------------|
|-22-5\4-22-5\4-----22-5\4-22-5\4----------2----------|
|-00-3\2-00-3\2-----00-3\2-00-3\2--2-0-3-5---5-3-2----|
  ..     ..         ..     ..      . . . . . . . .

Riff 6
|---------------------|
|-----ph4-------------|
|---------ph5~-ph3~---| x4
|---------------------|
|-2-2-----------------|
|-0-0-----------------|

Riff 7
|---------------------------|
|---------------------------|
|-------4-----5-----3-------|
|-2-----2-----3-----1-------|
|-0-000---000---000---------|
|---------------------------|
  . ...   ...   ...

Riff 8
|---------------------------|
|---------------------------|
|---------------------------|
|------4-----5-----3--------|
|------2-----3-----1--------|
|--000---000---000----------|
   ...   ...   ...

END

  Visit MetalTabs.com for more metal tablature

bottom separator

Contact Us | Privacy Policy | Disclaimer | Legal Notice
Copyright © 2001-2014 MetalTabs.com. All Rights Reserved.